Song name
# A B C D E F G H I J K L M N O P Q R S T U V W X Y Z

Tree 63 - So Glad tab

SO GLAD

by Tree 63

Tabbed by: Clivers

VERSE
E |--------------------------------|
B |--------------------------------|
G |x-x-x-x-4~----------------------|
D |x-x-x-x-4~------x-x-x-x-2~------|
A |x-x-x-x-2~------x-x-x-x-2~------|
E |----------------x-x-x-x-0~------|

PRE-CHORUS (palm mute)
E |--------------------------------|
B |--------------------------------|
G |--------------------------------|
D |4-4-4-4-4-4-4-4-2-2-2-2-2-2-2-2-|
A |4-4-4-4-4-4-4-4-2-2-2-2-2-2-2-2-|
E |2-2-2-2-2-2-2-2-0-0-0-0-0-0-0-0-|


CHORUS
E |--------------------------------|
B |--------------------------------|
G |4-4-4-4-------------------------|
D |4-4-4-4-2-2-2-2-6-6-6-6-4-4-4-4-|
A |2-2-2-2-2-2-2-2-6-6-6-6-4-4-4-4-|
E |--------0-0-0-0-4-4-4-4-2-2-2-2-|

SOLO
E |-----------------------------------------|
B |12-12-12-12-12-12-12-12-12-12-12-9~------|
G |-------------------------------------11~-| (2x)
D |-----------------------------------------|
A |-----------------------------------------|
E |-----------------------------------------|

       just a little bend here
E |------------------9-9-9-11b----------------9-9-9-----|
B |12-12-12-12--------------------12-12-12----------11~-|
G |------------11-11-----------------------11-----------| 
D |-----------------------------------------------------|
A |-----------------------------------------------------|
E |-----------------------------------------------------|

E |-------------------------------------------------|
B |11h12p11h12p11h12p11h12p11h12p11h12p11h12p11h12--|
G |-------------------------------------------------|
D |-------------------------------------------------|
A |-------------------------------------------------|
E |-------------------------------------------------|

that's the whole song
Tap to rate this tab
# A B C D E F G H I J K L M N O P Q R S T U V W X Y Z