Song name
# A B C D E F G H I J K L M N O P Q R S T U V W X Y Z

Tree 63 - King tab

E|------------------------------------------------------------------|
B|----------16----------16----------15----------16----------16------|
G|------15------15----------15----------15----------15----------15--|
D|--13--------------13----------13----------13----------13----------|
A|------------------------------------------------------------------|
E|------------------------------------------------------------------|

E|------------------------------------------------------------------|
B|----------16----------16----------15----------16----------16------|
G|------15------15----------15----------15----------15----------15--|
D|------------------------------------------------------------------|
A|--15--------------15----------15----------15----------15----------|
E|------------------------------------------------------------------|

E|------------------------------------------------------------------|
B|----------16----------16----------15----------16----------16------|
G|------15------15----------15----------15----------15----------15--|
D|------------------------------------------------------------------|
A|--13--------------13----------13----------13----------13----------|
E|------------------------------------------------------------------|

E|------------------------------------------------------------------|
B|----------16----------16----------15----------16----------16------|
G|------15------15----------15----------15----------15----------15--|
D|------------------------------------------------------------------|
A|(or 11)-----------------------------------------------------------|
E|(-16--)-----------16----------16----------16----------16----------|

 Instead of 16 you could stretch and grab the 11th fret on the A string
 what ever your comfortable with.


E|--------------------------------------------------------------------------|
B|--16--16--16--16----15--15--15--15----13--13--13--13----11--11--11--11----|
G|--13--13--13--13----12--12--12--12----10--10--10--10----8---8---8---8-----|
D|--13--13--13--13----12--12--12--12----10--10--10--10----8---8---8---8-----|
A|--------------------------------------------------------------------------|
E|-------------------------Repeat 3 times-----------------------------------|
             strum *down* up *down* up* while muting all other strings

E|----------------------------------------|
B|--9----9----9----9----9----9----9-----9-|
G|--8----8----8----8----8----8----8-----8-|
D|--6----6----6----6----6----6----6-----6-|
A|----------------------------------------|
E|---------------strum slow to quite------|
Tap to rate this tab
 
# A B C D E F G H I J K L M N O P Q R S T U V W X Y Z