Song name
# A B C D E F G H I J K L M N O P Q R S T U V W X Y Z

Tree 63 - Earnestly tab

Highlighted       Show chord diagrams
Earnestly


Intro/verse: use a tremolo effect
eb-----------------------------------------------------------------|
Bb-----1----------0----------0----------0--------------------------|
Gb-------0------1----------0---0----------2------------------------| (x2)
Db---3--------2----------------------2-----------------------------|
Ab----------------------3----------0-------------------------------|
Eb-----------------------------------------------------------------|
     F2       E         Cmaj7      A2

Verse: (continue with intro)

F2                    E

Cmaj7               A2

F2                      E

Cmaj7          A2

Prechorus:

D            A/C#    E

        Bm              A

D      A/C#    E               Bm        A

D     x577xx
A/C#  x477xx
E     x799xx
Bm    x244xx
A     x02200


Chorus:

E              C#m

E              C#m

A          F#m  A         B

A          F#m  A         B

E                    C#m

E              C#m

A          F#m  A         B

A          F#m  A         B

E   079900
C#m x46600
A   577xxx
F#m 244xxx
B   799xxx

[intro]
[repeat verse]
[repeat chorus]

Chorus is played twice, instruments only

Then:
eb-----------------------------------------------------------------|
Bb-----1----------0------------------------------------------------|
Gb-------0------1-------5-5-5-5--2-2-2-2---------------------------|
Db---3--------2---------5-5-5-5--2-2-2-2---------------------------|
Ab----------------------3-3-3-3--0-0-0-0---------------------------|
Eb-----------------------------------------------------------------|
play the inrto to the end!
Tap to rate this tab
# A B C D E F G H I J K L M N O P Q R S T U V W X Y Z