Song name
# A B C D E F G H I J K L M N O P Q R S T U V W X Y Z

Tree - Deadline tab

Hallo, my name is Vladimir, Im from Serbia.
This tab is request.






                  Time Tells All - Deadline
                  



B
In the spotlight, deadline
sends a tingle through your spine
like light flashes before your eyes.
Esus2             F#add4
I've found a new religion based on you
Esus2                F#add4       (F#)
My friends and I were only out to seek the truth



(whell, Esus2 and F#add4 can play another guitar, but in background its clear E and F# chord):


     Esus2     F#add4
e|---------2---------2----|
B|-------0---------0------|
G|-----3---------3--------|
D|---2---------4----------|
A|------------------------|
E|------------------------|


           E
Would you give it all up
    B        F#
To see the dream?
           E
Would you wash it all down
G#m             F#
If you don't believe? (straight up and go) 



SOLO or RIFF 1:

     E                         G#m        F#           B
e|-------------------------------------------------------|
B|-------4-5-4-----4-5-4-----------4-5-4-----------------|
G|-------------------------4-6-----------------6-6-6-4---|
D|---2-2-------2-2-------------6-6--------4-4------------|
A|---2-2-------2-2-------------6-6--------4-4------------|
E|---0-0-------0-0-------------4-4--------2-2------------|



B
Like a close call, so pressed for time
          E
From the music to these lips
                                   F#               E
let these lips send chills down through your fingertips
                   G#m     F#       E
I've found a new religion based on you
                    G#m          F#
My heart and I were only out to seek the truth 



           E
Would you give it all up
    B        F#
To see the dream?
           E
Would you wash it all down
G#m             F#                     E
If you don't believe? (straight up and go)



SOLO 2:

repeat with chords: E, G#m, F# } 2X

e|------------|
B|------------|
G|---3-4-3----|
D|--------4---|
A|------------|
E|------------|



        B
Like a cut-throat sing-along
so influential
Like a cut-throat sing-along
so influential
        E(Esus2)
Like a cut-throat sing-along
G#m(G#m7)  F#(F#add4)
so influential
       E(Esus2)
Like a cut-throat sing-along
G#m(G#m7)  F#(F#add4)
so influential



     Esus2      G#m7     F#add4
e|---------2---------2---------2---|
B|-------0---------0---------0-----|
G|-----3---------3---------3-------|
D|---2---------6---------4---------|
A|---------------------------------|
E|---------------------------------|



SOLO 3:

     E                        F#                    E                          F#
e|-------------------------------------------------------------------------------2--------------|
B|-----4-5-4---4-5-4---2-2-4----4-5-4----------4---------4-5-4---4-5-4--2-2-4---2-4--5-4-2-2-2--|
G|------------4------------------------6-4-6--6-6-4-------------4-----------------------------4\|
D|---2-------2----------4-----4---------------------6---2------2---------4-----4----------------|
A|----------------------------------------------------------------------------------------------|
E|----------------------------------------------------------------------------------------------|



           E
Would you give it all up
    B        F#
To see the dream?
           E
Would you wash it all down
G#m             F#
If you don't believe?



           E
Would you give it all up
    B        F#
To see the dream?
           E
Would you wash it all down
G#m             F#                      E
If you don't believe?  (straight up and go)




Used Chords:

        EADGBe
B-------x24442
E-------022100
F#------244322
Esus2---xx2302
F#add4--xx4302
G#m-----466444
G#m7----xx6302



Any comments post me at tordajav@yahoo.com


http://www.myspace.com/timetellsall
Tap to rate this tab
 
# A B C D E F G H I J K L M N O P Q R S T U V W X Y Z