Guitaretab - guitar tabs
Song name
# A B C D E F G H I J K L M N O P Q R S T U V W X Y Z

Treelines - When I Get Grown tab

-------------------------------------------------------------------------------
			                           When I get grown - Treelines 
-------------------------------------------------------------------------------
Tabbed by: justice_falls
Email: justice_falls@hotmail.com

Tuning: Standard Capo 7

e|---------------------------------------------------------------------------|
B|-----1-------1-----1-------1-----1-------1-----1-------1-------------------|
G|---------------------------------------------------------------------------|
D|--------0h2-----------0h2-----------0h2-----------0h2----------------------|
A|--3-------------3-------------3-------------3------------------------------| 
E|---------------------------------------------------------------------------|

e|---------------------------------------------------------------------------|
B|-----1-------1-----1-------1-----1-------1-----1-------1-------------------|
G|--------0h2-----------0h2-----------0h2-----------0h2----------------------|
D|--3-------------3-------------3-------------3------------------------------|
A|---------------------------------------------------------------------------|
E|---------------------------------------------------------------------------|

e|---------------------------------------------------------------------------|
B|-----1-------1-----1-------1-----3-------3-----3-------3-------------------|
G|---------------------------------------------------------------------------|
D|--------0h2-----------0h2--------------------------------------------------|
A|--0-------------0-------------------0h2-----------0h2----------------------|
E|------------------------------3-------------3------------------------------|
[ Tab from: http://www.guitaretab.com/t/treelines/278556.html ]
e|---------------------------------------------------------------------------|
B|-----1-------1-----1-------1-----1-------1-----1-------1-------------------|
G|--------0h2-----------0h2-----------0h2-----------0h2----------------------|
D|--3-------------3-------------3-------------3------------------------------|
A|---------------------------------------------------------------------------|
E|---------------------------------------------------------------------------|


This pattern repeats throughout the whole song underneath the vocals and harmonica. 
The tempo starts quick but slows down as the song progresses.


************************************

When I get all grown I want to find a little space, 
Somewhere that I can be myself somewhere I feel safe and settle down 
With a girl who shares my name. 

We'll store up in the autumn months and party in the spring, 
We'll lay away those summer days on white sand by the sea, 
We'll fall asleep when the snow begins to come down. 

Then the day will come when her stomach starts to grow, 
We'll freak about the million things we don't already know, 
We'll give them names after my favourite hockey players if it's ok. 

Their cribs will fill our morning but by noon they'll be in school, 
Their teenage years will come and go and by the rising of the moon they'll settle down, 
With someone else who shares their name now. 

And when our shoulders like old wooden fences lean towards the ground, 
The grandkids grow like rocket ships shooting to the clouds, 
Her hair is grey but her blue eyes never shone so proud. 

When the Lord comes calling and we have to say goodbye, 
I'll rest her in the ground if I'm the one whose left behind, 
Whisper goodnight and wait patiently for my white light to come.


************************************


| /   slide up
| \   slide down
| h   hammer-on
| p   pull-off
| ~   vibrato
| +   harmonic
| x   Mute note
| b   Bend
| pb  Pre-bend
| br  Bend release
| pbr Pre-bend release
| brb Bend release bend


Related for When I Get Grown tab
×
Best way to learn
"When I Get Grown"