Trent Reznor - Hand Covers Bruise tab

-------------------------------------------------------------------------------
			     Hand Covers Bruise - Trent Reznor
                                 Score to The Social Network
-------------------------------------------------------------------------------

Repeat these two parts throughout the score. You'll immediately recognize it.

e|--2---0-------------0----------------------------|
B|-------------------------3-----------------------|
G|---------0---------------------------------------|
D|----------------------------0--------------------|
A|-------------------------------------------------|
E|-------------------------------------------------|

e|--2---0------------------------------------------|
B|--------------------0----------------------------|
G|---------0---------------2-----------------------|
D|----------------------------0--------------------|
A|-------------------------------------------------|
E|-------------------------------------------------|
Tap to rate this tab
 
# A B C D E F G H I J K L M N O P Q R S T U V W X Y Z