Trevor Andrew - The Lime Tree tab

-------------------------------------------------------------------------------
			     THE LIME TREE (with drums) - Trevor Hall
-------------------------------------------------------------------------------
Tabbed by: Michael Libman
Email: michaellibman@live.ca

About: Hey there, thanks for checking out my lime tree tab!
This is the first song I have ever tabbed out so I'm hoping it helps you more than 
frustrates you =P.
The Lime Tree should be easy enough for beginners to learn and fun enough for pros to play.
This is one of my favorite songs and I hope it becomes one of yours as well! If you have 
any questions or see any errors feel free to email me.
Until then, have fun!

Tuning:	STANDARD - E A D G B e
Capo on the 4th fret

Introduction: Play twice
e|-------------------|
B|----3----0---------|
G|----0----0----0----|
D|--------------0----|
A|----3----5---------|
E|--------------5----|

Verse:
e|-------------------------|
B|----3---------------0----|
G|----0---------------0----|
D|-------------------------|
A|----3---------------5----|
E|-------------------------|
        Spark a match and watch the candle burn
        On fallen angels and broken sounds

e|------------------------------------|
B|------------------------------------|
G|----0-------------------------------|
D|----0-------------------------------|
A|------------------------------------|
E|----5-------------------------------|
      The wick runs out and love takes its turn
      We will last past the final round

Chorus:
      C    G    G*   Am   E
e|----0----0----3----0---------|
B|----1----1----1----1---------|
G|----0----0----0----2---------|
D|----2----0----0----2----2----|
A|----3----2----2----0----2----|
E|---------3----3--------------|
C               G                  G*
It took a while for you to find me
Am               E
But I was hiding in the lime tree
C              G
Above the city in the rain cloud
Am             E
I poked a hole and watched it drain out


Introduction: Play twice
e|-------------------|
B|----3----0---------|
G|----0----0----0----|
D|--------------0----|
A|----3----5---------|
E|--------------5----|


Verse:
e|-------------------------|
B|----3---------------0----|
G|----0---------------0----|
D|-------------------------|
A|----3---------------5----|
E|-------------------------|
        And parallel to the city streets
        But as we walk across the diamonds
        Save me love save me all the time
        Toast my glass to all my loved ones

e|------------------------------------|
B|------------------------------------|
G|----0-------------------------------|
D|----0-------------------------------|
A|------------------------------------|
E|----5-------------------------------|
      Our broken crowns beneath our feet
      We know that love is always shining
      I'll wash ya down with a simple sip of wine
      To let them know that the stars well they still shine

Chorus:
      C    G    G*   Am   E
e|----0----0----3----0---------|
B|----1----1----1----1---------|
G|----0----0----0----2---------|
D|----2----0----0----2----2----|
A|----3----2----2----0----2----|
E|---------3----3--------------|
C               G                  G*
It took a while for you to find me
Am               E
But I was hiding in the lime tree
C              G
Above the city in the rain cloud
Am             E
I poked a hole and watched it drain out
Tap to rate this tab
 
# A B C D E F G H I J K L M N O P Q R S T U V W X Y Z