Song name
# A B C D E F G H I J K L M N O P Q R S T U V W X Y Z

Trevor Hall - 31 Flavors tab

-------------------------------------------------------------------------------
			31 Flavors    - Trevor Hall
-------------------------------------------------------------------------------
Tabbed by: Mike
Email: sturgio2183@hotmail.com

Tuning: Standard Capo 4

Intro/Verse
    Am   F    C    G
e|-----------------3---------------------------------------------------|
B|--1----1----1----3---------------------------------------------------|
G|--2----2-------------------------------------------------------------|
D|--2----3----2--------------------------------------------------------|
A|-------3----3----2---------------------------------------------------|
E|------(1)--------3---------------------------------------------------|

Chorus
      C    G     Am   F            Background
e|---------3---------------------0-------------------------------------|
B|----1----3-----1----1-------------3---1------------------------------|
G|---------------2----2---------------------0--------------------------|
D|----2----------2----3------------------------------------------------|
A|----3----2----------3------------------------------------------------|
E|---------3---------(1)-----------------------------------------------|

Post Chorus
      Am   F    C        F    G    C
e|----------------------------3----------------------------------------------|
B|----1----1----1--------1----3----1-----------------------------------------|
G|----2----2-------------2---------------------------------------------------|
D|----2----3----2--------3---------2-----------------------------------------|
A|---------3----3--------3----2----3-----------------------------------------|
E|----------------------------3----------------------------------------------|

Bridge (effect)
e|-----------------------------------------------------------------------------|
B|---1-----5----6----10--------------------------------------------------------|
G|-----------------------------------------------------------------------------|
D|-----------------------------------------------------------------------------|
A|---3-----7----8----12--------------------------------------------------------|
E|-----------------------------------------------------------------------------|
Tap to rate this tab
# A B C D E F G H I J K L M N O P Q R S T U V W X Y Z