Song name
# A B C D E F G H I J K L M N O P Q R S T U V W X Y Z

Trevor Hall - Other Ways tab

Help us improve GuitareTab! Take a short survey!
-------------------------------------------------------------------------------
			     Other Ways - Trevor Hall
-------------------------------------------------------------------------------
Tabbed by: Sean Hummer
Email: allstar21369@hotmail.com

It sounds correct to me.


Tuning: Standard


Intro/Verse
e|0--------0-------0-------0-------------------------------------------------|
B|0--------0-------0-------0-------------------------------------------------|
G|9--x32---6--x8---8--x8---9--x16--------------------------------------------|
D|9--------6-------9-------9-------------------------------------------------|
A|7--------4-------9-------7-------------------------------------------------|
E|-----------------7---------------------------------------------------------|


Chorus
e|0--------0--------0--------0-----------------------------------------------|
B|0--------5--------0--------0-----------------------------------------------|
G|6--------6--------6--------8-----------------------------------------------|
D|7--x16---6--x16---7--x16---9--x10------------------------------------------|
A|7--------4--------7--------9-----------------------------------------------|
E|5-----------------5--------7-----------------------------------------------|


Bridge
e|0--------0--------0--------0-----------------------------------------------|
B|5--------0--------0--------0-----------------------------------------------|
G|6--------6--------8--------9-----------------------------------------------|
D|6--x8----7--x8----9--x8----9--x8-------------------------------------------|
A|4--------7--------9--------7-----------------------------------------------|
E|---------5--------7--------------------------------------------------------|


| /  slide up
| \  slide down
| h  hammer-on
| p  pull-off
| ~  vibrato
| +  harmonic
| x  Mute note
===============================================================================
Related for Other Ways tab