Song name
# A B C D E F G H I J K L M N O P Q R S T U V W X Y Z

Trevor Hall - My Beating Heart tab

-------------------------------------------------------------------------------
			     My Beating Heart - Trevor Hall
-------------------------------------------------------------------------------
Tabbed by: Mike	
Email:  sturgio2183@hotmail.com

Tuning: Standard

Not sure but this sounds right
                      
e|-----------------------------------------------------------------------------3----------3p0--|
B|-----------1------------------1---------------1-----------1------------------1----------1----|
G|-----------2----X3------------2--0------------0-----------2p0--------------------------------|
D|---------------------------------------------------------------------------------------------|
A|---0--0---------------0--0-----------3--3--------3--3----------------------------------------|
E|----------------------------------------------------------------------3--3-------3--3--------|

| /  slide up
| \  slide down
| h  hammer-on
| p  pull-off
| ~  vibrato
| +  harmonic
| x  Mute note
===============================================================================
Tap to rate this tab
# A B C D E F G H I J K L M N O P Q R S T U V W X Y Z