Song name
# A B C D E F G H I J K L M N O P Q R S T U V W X Y Z

Trevor Hall - Well I Say tab

-------------------------------------------------------------------------------
			     Well I Say - Trevor Hall
-------------------------------------------------------------------------------
Tabbed by: Mike
Email: sturgio2183@hotmail.com

Tuning: Capo 2nd Standard

e|-----3--0--------0--3/5--0--------0----------------------------------------|
B|-----------0--0-------------0--0-------------------------------------------|
G|-----0-----4--4-----0-------4--4-------------------------------------------|
D|--------2----------------2-------------------------------------------------|
A|---------------------------------------------------------------------------|
E|-----------3--2-------------3--2-------------------------------------------|

e|-----3-0-----------------3-0-----------------------------------------------|
B|---------5-----------3-----------------------------------------------------|
G|-----------4-0---4-----4---------------------------------------------------|
D|---------------0---0-------------------------------------------------------|
A|---------------------------------------------------------------------------|
E|---------------------------------------------------------------------------|

Tap to rate this tab
# A B C D E F G H I J K L M N O P Q R S T U V W X Y Z