Song name
# A B C D E F G H I J K L M N O P Q R S T U V W X Y Z

Trevor Hall - Jago Ma tab

Help us improve GuitareTab! Take a short survey!
e|----0---00(s)--0-0---0-xxxxx---0---00(s)--0-0---[12]
B|----0---00(s)--0-0---0-xxxxx---0---00(s)--0-0---[12]
G|----0---00(s)--0-0---0-xxxxx---0---00(s)--0-0---[12]
D|----x---xx(s)--x-x---x-xxxxx---x---xx(s)--x-x---[12]
A|----4h5-55(s)--4-4h5-5-xxxxx---4h5-55(s)--4-4h5-[12]
E|----0---00(s)--0-0---0-xxxxx---0---00(s)--0-0---[12]


e|----0---00(s)--0-0---0-xxxxx---0---00(s)--0-0---------------|
B|----0---00(s)--0-0---0-xxxxx---0---00(s)--0-0---------------|
G|----0---00(s)--0-0---0-xxxxx---0---00(s)--0-0---0-0-0-0-0-0-|
D|----x---xx(s)--x-x---x-xxxxx---x---xx(s)--x-x---0-0-0-0-0-0-|
A|----4h5-55(s)--4-4h5-5-xxxxx---4h5-55(s)--4-4h5-x-x-x-x-x-x-|
E|----0---00(s)--0-0---0-xxxxx---0---00(s)--0-0---3-3-3-5-3-0-|


Repeat everything
I know this is 100% right but if you dont get it listen to the song and play with these tabs.


Key

(s)= slap the strings with right hand
 x = mute string
 h = hammer on
[12]= harmonix
Related for Jago Ma tab