Song name
# A B C D E F G H I J K L M N O P Q R S T U V W X Y Z

Trevor Hall - Girls Song tab

e|---2p0------------2p0-------------2p0------------2p0------------4----4--4-|
B|-------2p0-2----------2p0-------------2p0-2----------2p0----------0----0--|
G|-------------2--2---------2-2-2-------------2--2---------2-2-2------------|
D|--------------------------------------------------------------------------|
A|---0---0---0--0---0---0----0-0----0---0---0--0---0---0----0-0---0--0-0----|
E|--------------------------------------------------------------------------|

e|-2p0-----------|
B|-----2p0-------|
G|---------2-2-2-|
D|---------------|
A|-0---0----0-0--|              Repeat throuht the song
E|---------------|

This is 100% Correct, Listen to the song to get the right tempo, its my second tab tell 
how i did
Tap to rate this tab
 
# A B C D E F G H I J K L M N O P Q R S T U V W X Y Z