Song name
# A B C D E F G H I J K L M N O P Q R S T U V W X Y Z

Trevor Hall - Mirror Of The Sky tab

Tuning: DADGAD

INTRO:

D|------0-0------0-0------0-0----------------|
A|------0-0------0-0------0-0----------------|
G|-------------------------------------------|
D|-----------------------------------0-2h4---|
A|-------------------------------------------|
D|-0-0------0-0------0-0------0-0------------|


D|------0-0------0-0------0-0----------------|
A|------0-0------0-0------0-0----------------|
G|-------------------------------------------|
D|-----------------------------------4-2p0---|
A|-------------------------------------------|
D|-0-0------0-0------0-0------0-0------------|


D|------0-0------0-0------0-0----------------|
A|------0-0------0-0------0-0----------------|
G|-------------------------------------------|
D|-----------------------------------0-2h4---|
A|-------------------------------------------|
D|-0-0------0-0------0-0------0-0------------|


D|------0-0------0-0------0-0------0---------|
A|------0-0------0-0------0-0------0---------|
G|-------------------------------------------|
D|-------------------------------------------|
A|-------------------------------------------|
D|-0-0------0-0------0-0------0-0------------|


D|-----2p0---------0-----------------0-----------------0-----|
A|-----------2p0----0-----0-----------0-----------------0----|
G|-------------------------0---------------------------------|
D|-----------------------------4p0---------------4p0---------|
A|--------------------2-2----2-----2---------4p0-------------|
D|-0-0-----0-----0-----------------------5-5---------5-------|

D|-----0-0------------ <----|4x
A|-----0-0------------------|
G|--------------------------|
D|--------------------------|
A|--------------------------|
D|-0-0----------------------|


D|-----2p0---------0-----------------0-----------------0-----|
A|-----------2p0----0-----0-----------0-----------------0----|
G|-------------------------0---------------------------------|
D|-----------------------------4p0---------------4p0---------|
A|--------------------2-2----2-----2---------4p0-------------|
D|-0-0-----0-----0-----------------------5-5---------5-------|

D|-----0-0------------ <----|8x
A|-----0-0------------------|
G|--------------------------|
D|--------------------------|
A|--------------------------|
D|-0-0----------------------|


VERSE 1:

D|-----2p0---------0-----------------0----------------0---------|
A|-----------2p0----0-----0-----------0----------------0--------|
G|-------------------------0------------------------------------|
D|-----------------------------4p0--------------4p0-------------|
A|--------------------2-2----2-----2--------4p0-----------------|
D|-0-0-----0-----0----------------------5-5---------5-----------|
  Mirror of the Sky. What is on your mind? I've been waiting for a sign.

D|-----0-0------0-0--------|
A|-----0-0------0-0--------|
G|-------------------------|
D|-------------------------|
A|-------------------------|
D|-0-0------0-0------------|


D|-----2p0---------0-----------------0----------------0---------|
A|-----------2p0----0-----0-----------0----------------0--------|
G|-------------------------0------------------------------------|
D|-----------------------------4p0--------------4p0-------------|
A|--------------------2-2----2-----2--------4p0-----------------|
D|-0-0-----0-----0----------------------5-5---------5-----------|
  In this hide and seek, will we ever meet? Remove the dust from my eyes.

D|-----0-0------0-0--------|
A|-----0-0------0-0--------|
G|-------------------------|
D|-------------------------|
A|-------------------------|
D|-0-0------0-0------------|


D|-----2p0---------0-----------------0----------------0---------|
A|-----------2p0----0-----0-----------0----------------0--------|
G|-------------------------0------------------------------------|
D|-----------------------------4p0--------------4p0-------------|
A|--------------------2-2----2-----2--------4p0-----------------|
D|-0-0-----0-----0----------------------5-5---------5-----------|
  When the daylight comes, I can't see the sun. I can only feel the rain.

D|-----0-0------0-0--------|
A|-----0-0------0-0--------|
G|-------------------------|
D|-------------------------|
A|-------------------------|
D|-0-0------0-0------------|


D|-----2p0---------0-----------------0----------------0---------|
A|-----------2p0----0-----0-----------0----------------0--------|
G|-------------------------0------------------------------------|
D|-----------------------------4p0--------------4p0-------------|
A|--------------------2-2----2-----2--------4p0-----------------|
D|-0-0-----0-----0----------------------5-5---------5-----------|
  Is my heart at war, well I don't know for sure. As I kiss the lion's mane.


CHORUS:

D|-4444-4--2222-2--0000-0--0000-0------------------0------4p0---------0-----|2x
A|-0000-0--0000-0--0000-0--0000-0-------------------0-----------4p0---------|
G|-2222-2--2222-2--4444-4--2222-2-------------------------------------------|
D|-0000-0--0000-0--0000-0--0000-0------------4p0----------------------------|
A|-0000-0--0000-0--0000-0--0000-0------4p0----------------------------------|
D|-0000-0--0000-0--0000-0--0000-0--5-5-----5-----5-----5-5----5-----5-------|

D|------------------------ <---|Play after the second time of ^
A|---------0-------------------|
G|-----------0-----------------|
D|-----0-------0---------------|
A|-----------------------------|
D|-5-5---5-------5s7-----------|

VERSE 2:


D|-----2p0---------0-----------------0----------------0---------|
A|-----------2p0----0-----0-----------0----------------0--------|
G|-------------------------0------------------------------------|
D|-----------------------------4p0--------------4p0-------------|
A|--------------------2-2----2-----2--------4p0-----------------|
D|-0-0-----0-----0----------------------5-5---------5-----------|
  Tell me what's the cost, Oh for being lost. Can I ever pay the price.

D|-----0-0------0-0--------|
A|-----0-0------0-0--------|
G|-------------------------|
D|-------------------------|
A|-------------------------|
D|-0-0------0-0------------|


D|-----2p0---------0-----------------0----------------0---------|
A|-----------2p0----0-----0-----------0----------------0--------|
G|-------------------------0------------------------------------|
D|-----------------------------4p0--------------4p0-------------|
A|--------------------2-2----2-----2--------4p0-----------------|
D|-0-0-----0-----0----------------------5-5---------5-----------|
For I have lost the reigns,all my horses are insane.A blind man rolls my dice

D|-----0-0------0-0--------|
A|-----0-0------0-0--------|
G|-------------------------|
D|-------------------------|
A|-------------------------|
D|-0-0------0-0------------|


D|-----2p0---------0-----------------0----------------0---------|
A|-----------2p0----0-----0-----------0----------------0--------|
G|-------------------------0------------------------------------|
D|-----------------------------4p0--------------4p0-------------|
A|--------------------2-2----2-----2--------4p0-----------------|
D|-0-0-----0-----0----------------------5-5---------5-----------|
  I knew all along, the silence in the song, was the map to take me home.


D|-----0-0------0-0--------|
A|-----0-0------0-0--------|
G|-------------------------|
D|-------------------------|
A|-------------------------|
D|-0-0------0-0------------|


D|-----2p0---------0-----------------0----------------0---------|
A|-----------2p0----0-----0-----------0----------------0--------|
G|-------------------------0------------------------------------|
D|-----------------------------4p0--------------4p0-------------|
A|--------------------2-2----2-----2--------4p0-----------------|
D|-0-0-----0-----0----------------------5-5---------5-----------|
  Well I kept listenin, but Lord I kept missin it. Now i'm stuck at the crossroads.

CHORUS:

D|-4444-4--2222-2--0000-0--0000-0------------------0------4p0---------0--|
A|-0000-0--0000-0--0000-0--0000-0-------------------0-----------4p0------|
G|-2222-2--2222-2--4444-4--2222-2----------------------------------------|
D|-0000-0--0000-0--0000-0--0000-0------------4p0-------------------------|
A|-0000-0--0000-0--0000-0--0000-0------4p0-------------------------------|
D|-0000-0--0000-0--0000-0--0000-0--5-5-----5-----5-----5-5----5-----5----|

*Then he plays some pattern of the chords:
D|-4-  D|-2-  D|-5-  D|-0-  D|-0-|
A|-0-  A|-0-  A|-0-  A|-2-  A|-0-|
G|-2-  G|-2-  G|-2-  G|-2-  G|-2-|
D|-0-  D|-0-  D|-0-  D|-0-  D|-0-|
A|-0-  A|-0-  A|-0-  A|-0-  A|-0-|
D|-0-  D|-0-  D|-0-  D|-0-  D|-0-|

OUTRO:

D|-----------12---------------12------------------12-----------------12-----|
A|----9h10p9----9-9-----7h9p7----7-7-----10h12p10----10-10-----9h10p9---9-9-|
G|--------------------------------------------------------------------------|
D|-0-0--------------0-0--------------0-0--------------------0-0-------------|
A|--------------------------------------------------------------------------|
D|--------------------------------------------------------------------------|
Tap to rate this tab
 
# A B C D E F G H I J K L M N O P Q R S T U V W X Y Z