Song name
# A B C D E F G H I J K L M N O P Q R S T U V W X Y Z

Trevor Hall - Volume tab

Trevor Hall - Volume
Very simple power chord tab. Includes "Solo"

Verse
e||------------------------------------------------|
B||------------------------------------------------|
G||-6-6-X-XX-----2-2-X-XX-----------------4-4-X-XX-|
D||-6-6-X-XX-----2-2-X-XX-----2-2-X-XX----4-4-X-XX-|
A||-4-4-X-XX-----0-0-X-XX-----2-2-X-XX----2-2-X-XX-|
E||---------------------------0-0-X-XX-------------|
    play x4      play x2      play once   play once

piano

e||----------------|
B||-7--5-----5-----|
G||-------6-----6--|
D||----------------|
A||----------------|
E||----------------|


Chorus

e||------------------------------------|
B||------------------------------------|
G||-6-6-X-XX-----9-9-X-XX-----4-4-X-XX-|
D||-6-6-X-XX-----9-9-X-XX-----4-4-X-XX-|
A||-4-4-X-XX-----7-7-X-XX-----2-2-X-XX-|
E||------------------------------------|

Bridge Or "Solo" - NOT Exact

e||-------------------------------------------------------------|
B||--99999999999999999121212121212999999999999999777777777777777|
G||-------------------------------------------------------------|
D||-------------------------------------------------------------|
A||-------------------------------------------------------------|
E||-------------------------------------------------------------|
                          ^ Those are Twelves(12s)
Bridge Chord

e||-------|
B||-------|
G||-6-6---|
D||-6-6---|
A||-4-4---|
E||-------|
Repeat this
Tap to rate this tab
 
# A B C D E F G H I J K L M N O P Q R S T U V W X Y Z