Song name
# A B C D E F G H I J K L M N O P Q R S T U V W X Y Z

Trevor Hall - Angel Rays tab

-------------------------------------------------------------------------------
			     ANGEL RAYS - Trevor Hall
-------------------------------------------------------------------------------
Tabbed by: twocoins21
Email: freefall14@gmail.com

Tuning: Standard
       C
e|---------------------------------------------------------------------------|
B|--1-------1-----------3------------1---------------------------------------|
G|--0-----------0-----------0------------0-------0---------------------------|
D|-------------------2------------2-----------2------------------------------|
A|--3---3--------------------------------------------------------------------|
E|---------------------------------------------------------------------------|
      Am
e|---------------------------------------------------------------------------|
B|--1-------1------------3------------1--------------------------------------|
G|--2-------------2------------2------------2--------2-----------------------|
D|--------------------2------------2------------2----------------------------|
A|--0---0--------------------------------------------------------------------|
E|---------------------------------------------------------------------------|
     G
e|---------------------------------------------------------------------------|
B|--1--------1-----------3-----------1---------------------------------------|
G|--0------------0-----------0-----------0-------0---------------------------|
D|--------------------0-----------0-----------0------------------------------|
A|---------------------------------------------------------------------------|
E|--3---3--------------------------------------------------------------------|
    D/G
e|----------------------------------------------------3----------------------|
B|--3------------3---------3---------3------3---------------3---------3------|
G|--2p0----------0---------0---------0------2p0------------------0-----------|
D|---------------------------------------------------------------------------|
A|---------------------------------------------------------------------------|
E|--3-------3--------3--------3-------------3-------3------------------------|

Repeat twice for intro. Listen for the rhythms - it's not difficult. 


************************************

| /   slide up
| \   slide down
| h   hammer-on
| p   pull-off
| ~   vibrato
| +   harmonic
| x   Mute note
| b   Bend
| pb  Pre-bend
| br  Bend release
| pbr Pre-bend release
| brb Bend release bend

************************************
Tap to rate this tab
# A B C D E F G H I J K L M N O P Q R S T U V W X Y Z