Song name
# A B C D E F G H I J K L M N O P Q R S T U V W X Y Z

Trevor Hall - The Lime Tree tab

Lime Tree, solo part
capo-4th fret

Alil bit of credit to colinfishbaugh, u will see a few of the things similar in his

my first tab here so please give me feedback on what you think
for the music that i went along with go to this link:
http://www.youtube.com/watch?v=Ggo7EKFCAuc


top-E
e-|----3------------------7---8--7-6-5------6/7-----6-----7-------|
b-|-3-----3---0---8-----0--------------8----8--?--------------0---|
g-|-0---------0------7--------------------7----?--7-0----------0--|
d-|--------------------------------------------?---------5--------|
a-|-3---------5--------------------------------?------------------|
e-|--------------------------------------------?------------------|

                  chorus
e-|--8--7--5---0----1----0------~|
b-|------------1----1----1------~|
g-|------------0----0----2------~|
d-|------------2----0----2------~|
a-|------------3----2----0------~|
e-|------------0----3----0------~|
Tap to rate this tab
# A B C D E F G H I J K L M N O P Q R S T U V W X Y Z