Song name
# A B C D E F G H I J K L M N O P Q R S T U V W X Y Z

Trevor Hall - All I Ever Know tab

-------------------------------------------------------------------------------
			     All I Ever Know - Trevor Hall
-------------------------------------------------------------------------------
Tabbed by: JoshH7
Email: Buddy1125@mchsi.com

Tuning: standard

so heres how the first part goes and just listen to the song to see where it is.


e|--------------------------------------------0---------0--|
B|----5---7---8---5----5---7---3----5----12--------10------|
G|---------------------------------------------------------|
D|---------------------------------------------------------|
A|----3---5---7--------3---5---2-------10--------9---------|
E|---------------------------------------------------------|


and heres the chorus:


e|-------0------0------0--------0-------|
B|----5------7------8------12-----------|
G|--------------------------------------|
D|--------------------------------------|
A|----3------5------7------10-----------|
E|--------------------------------------|



chords:

       C      D      G      Em
e|-----0------2------3------0--------|
B|-----1------3------0------0--------|
G|-----0------2------0------0--------|
D|-----2------0------0------2--------|
A|-----3------0------2------2--------|
E|-----0------0------3------0--------|
Tap to rate this tab
 
# A B C D E F G H I J K L M N O P Q R S T U V W X Y Z