Song name
# A B C D E F G H I J K L M N O P Q R S T U V W X Y Z

Trevor Hall - The Lions Mane tab

-------------------------------------------------------------------------------
			     The Lions Mane - TREVOR HALL
-------------------------------------------------------------------------------
Tabbed by: Ricky
Email:

Tuning: EADGBE

CAPO 9th fret

e|--------------------------------------------------------------------------|
B|-----------5-----------3---------5--------0-------------------------------|
G|---------0-----------0---------0--------0---------------------------------|
D|--------------------------------------------------------------------------|
A|-------------------3------------------------------------------------------|
E|-------3--------------------3----------0----------------------------------|


Ring these out..

Thats pretty much the whole song..
LOVE
Tap to rate this tab
 
# A B C D E F G H I J K L M N O P Q R S T U V W X Y Z