Song name
# A B C D E F G H I J K L M N O P Q R S T U V W X Y Z

Trevor Hall - Well I Say tab

------------------------------------------------------------------------------
			     Well I Say - Trevor Hall
-------------------------------------------------------------------------------
Tabbed by:SullyDGS

Tuning:Standard Capo 2nd Fret


Intro and Verse

e|------------------------------------0-----------------------------------0--|
B|----8---------5---------0-----0---------8--10-----5---------0-----0--------|
G|------------------------4-----4-----------------------------4-----4--------|
D|----9---------5-------------------------9---------5------------------------|
A|----7---------3---------5-----5---------7---------3---------5-----5--------|
E|------------------------3-----2-----------------------------3-----2--------|

Repeat this throughout verses


Chorus

e|-----3-0-----------------3-0-----------------------------------------------|
B|---------5-----------3-----------------------------------------------------|
G|-----------4-0---4-----4---------------------------------------------------|
D|---------------0---0-------------------------------------------------------|
A|---------------------------------------------------------------------------|
E|---------------------------------------------------------------------------|


Thanks for using... Rate! :)

************************************

| /   slide up
| \   slide down
| h   hammer-on
| p   pull-off
| ~   vibrato
| +   harmonic
| x   Mute note
| b   Bend
| pb  Pre-bend
| br  Bend release
| pbr Pre-bend release
| brb Bend release bend

************************************
Tap to rate this tab
# A B C D E F G H I J K L M N O P Q R S T U V W X Y Z