Song name
# A B C D E F G H I J K L M N O P Q R S T U V W X Y Z

Trevor Hall - Jago Ma tab

I haven't been able to find a tab that plays Jago Ma the way I play it.  I created this 
from watching
live performances and by ear.  I'm not the best at tabbing or showing timing, so listen 
to the song
for timing.  Trevor mixes the chords up a little bit sometimes adding harmonics and 
extra strumming,
this just shows the basics.  Hope this makes sense so you can enjoy playing this one.

-Ben

Trevor Hall - Jago Ma
From This is Blue:

Intro
-----(12)-------0---0--x--0--0--x--x------|
---------(12)---0---0--x--0--0--x--x------|
----------------0---0--x--0--0--x--x------|
----------------5---5--x--5--5--x--x------|
----------------5h7-7--x--5--7--x--x------|
-(12)-----------0---0--x--0--0--x--x------|

-0---0--x--0--0--x--(12)------|
-0---0--x--0--0--x--(12)------|
-0---0--x--0--0--x--(12)------|
-5---5--x--5--5--x--(12)------| Repeat with out harmonics until first chorus starts
-5h7-7--x--5--7--x--(12)------|
-0---0--x--0--0--x--(12)------|

Chorus
-0---0--x--0--0--x--------------------0----0-0------|
-0---0--x--0--0--x--------------------0----0-0------|
-0---0--x--0--0--x--------------------0----0-0------|
-5---5--x--5--5--x---Repeat 4 times---0----0-0------| Repeat 2 times
-5h7-7--x--5--7--x--------------------5/7--7-7------|
-0---0--x--0--0--x--------------------3/5--5-5------|

Verse
-0---0-0--x--------------------0----0-0------|
-0---0-0--x--------------------0----0-0------|
-0---0-0--x--------------------0----0-0------|
-5---5-5--x---Repeat 2 times---0----0-0------| Repeat 4 times, then chorus
-5h7-7-7--x--------------------5/7--7-7------|
-0---0-0--x--------------------3/5--5-5------|

During end of 2nd verse:
 Em   G   D   A
--7---3---5---5----|
--8---3---7---5----|
--9---4---7---6----|
--9---5---7---7----|
--7---5---5---7----|
--7---3---5---5----|

Em                              G
I need a love that will swallow me whole
         D                                     A
This ain't the first time I've tried to save my soul
         Em                              G
I need a God in living form, you're all that I've got
D                                  A
Aim your weapon darling take your shot

Breakdown:
-0---0---0---0---|
-0---0---0---0---|
-0---0---0---0---|
-9---7---7---7---| Repeat 8 times
-7---5---0---0---|
-0---0---5---3---|

-0---0--x--0--0--x--(12)----0---0--x--0--0--x------------------------|
-0---0--x--0--0--x--(12)----0---0--x--0--0--x------------------------|
-0---0--x--0--0--x--(12)----0---0--x--0--0--x------------------------|
-5---5--x--5--5--x--(12)----5---5--x--5--5--x--2/slide up neck-------|
-5h7-7--x--5--7--x--(12)----5h7-7--x--5--7--x--2/slide up neck-------|
-0---0--x--0--0--x--(12)----0---0--x--0--0--x------------------------|

-0---0--x--0--0--x---0---0--x--0--0--x-----0----0-0------|
-0---0--x--0--0--x---0---0--x--0--0--x-----0----0-0------|
-0---0--x--0--0--x---0---0--x--0--0--x-----0----0-0------|
-5---5--x--5--5--x---5---5--x--5--5--x-----0----0-0------|
-5h7-7--x--5--7--x---5h7-7--x--5--7--x-----5/7--7-7------|
-0---0--x--0--0--x---0---0--x--0--0--x-----3/5--5-5------|

End:
-0---0--x--0--0--|
-0---0--x--0--0--|
-0---0--x--0--0--|
-5---5--x--5--5--|
-5h7-7--x--5--7--|
-0---0--x--0--0--|
Tap to rate this tab
 
# A B C D E F G H I J K L M N O P Q R S T U V W X Y Z