Song name
# A B C D E F G H I J K L M N O P Q R S T U V W X Y Z

Trevor Hall - Well I Say tab

-------------------------------------------------------------------------------
                             WELL I SAY - Trevor Hall
-------------------------------------------------------------------------------
Tabbed by: chaos13


Tuning: Standard
Capo: 2nd Fret


** In order to play this song correctly, you must use fingerpicking or hybrid picking.
I've found hybrid picking to be much easier, as some chords are played as
rapid arpeggios, making it difficult to get this correctly using your thumb,
but do whatever works best for you.


Intro/Verse

e|-------------------0----------------------------0--|
B|--8--7-----0--0---------8-10-----7-----0--0--------|
G|-----------4--4------------------------4--4--------|
D|--9--7-----------------9---------7-----------------|
A|--7--5-----5--5-------7----------5-----5--5--------|
E|-----------3--2------------------------3--2--------|



Chorus


e|--3-0----------------------3p0----3-0-------------------------|
B|------5-0---------0--0----5-----------5-0---------0--0---3h5--|
G|----------4-0---4-4--4---4----------------4-0---4-4--4--4-----|
D|--------------0-------------------------------0--------0------|
A|------------------5--5----------------------------5--5--------|
E|------------------3--2----------------------------3--2--------|


e|-------------------------3p0----3-0-------------------0--|
B|-5-5-0-----------0--0---5-----------5-0---------0--0-----|
G|-------4-0-----4-4--4--4----------------4-0---4-4--4-----|
D|-------------0------------------------------0------------|
A|-----------------5--5---------------------------5--5-----|
E|-----------------3--2---------------------------3--2-----|



Outro


e|--3-0------------------------0------0----------------------------|
B|------5-0-----------------------------5-0-------------------3h5--|
G|----------4-0---4-------------------------4-0---4----------4-----|
D|--------------0-------------------------------0-----------0------|
A|------------------5--5-------------------------------5--5--------|
E|------------------3--2------------0------------------3--2--------|


e|-------------------------3p0----3-0----------------------|
B|-5-5-0------------------5-----------5-0------------------|
G|-------4-0-----4-------4----------------4-0---4----------|
D|-------------0------------------------------0------------|
A|-----------------5--5---------------------------5--5-----|
E|-----------------3--2---------------------------3--2-----|


Intro/Verse x4
Chorus
Verse x6
Chorus
Verse x2
Outro


************************************

| /   slide up
| \   slide down
| h   hammer-on
| p   pull-off
| ~   vibrato
| +   harmonic
| x   Mute note
| b   Bend
| pb  Pre-bend
| br  Bend release
| pbr Pre-bend release
| brb Bend release bend

************************************
Tap to rate this tab
# A B C D E F G H I J K L M N O P Q R S T U V W X Y Z