Song name
# A B C D E F G H I J K L M N O P Q R S T U V W X Y Z

Trevor Jones And Randy Edelman - Promentory tab

-------------------------------------------------------------------------------
        Promentory - Trevor Jones & Randy Edelman
                (adapted for guitar)
-------------------------------------------------------------------------------
Tabbed by: mkozniuk
Email: i_m_bob@hotmail.com

Tuning: Standard

e|---------------------------------------------------------------------------|
B|---------------------------------------------------------------------------|
G|--------------------10---9---7------9---7-----------7----------------------|     x 2
D|---7------7--7-----------------------------10----------10---8--------------|
A|---------------------------------------------------------------------------|
E|---------------------------------------------------------------------------|

e|---------------------------------------------------------------------------|
B|--------------------------------------8------------------------------------|
G|---------------------9---7---9-----------9---9------9---7---9--------------|     x 2
D|---10---9---10-------------------------------------------------------------|
A|---------------------------------------------------------------------------|
E|---------------------------------------------------------------------------|

e|---------------------------------------------------------------------------|
B|-------------------------------------8-------------------------------------|
G|---------10---9---10-----10---9---10-------10---10-----10---9---7----------|
D|---------------------------------------------------------------------------|
A|---------------------------------------------------------------------------|
E|---------------------------------------------------------------------------|

e|---------------------------------------------------------------------------|
B|----------------------------------8----------------------------------------|
G|---9---7---9-----9---7---9----------9---9-----9---7------------------------|
D|---------------------------------------------------------10----------------|
A|---------------------------------------------------------------------------|
E|---------------------------------------------------------------------------|

e|---------------------------------------------------------------------------|
B|---------------------------------------------------------------------------|
G|---7--------7-----7--------7-----10---9---7---------7---7------------------|
D|-------10-------------10--------------------------7------------------------|
A|---------------------------------------------------------------------------|
E|---------------------------------------------------------------------------|

e|---------------------------------------------------------------------------|
B|---------------------------------------------------------------------------|
G|---7--------7-----7--------7-----10---9---7-----9---7----------------------|
D|-------10-------------10----------------------------------8----------------|
A|---------------------------------------------------------------------------|
E|---------------------------------------------------------------------------|

Repeat.
Tap to rate this tab
# A B C D E F G H I J K L M N O P Q R S T U V W X Y Z