Song name
# A B C D E F G H I J K L M N O P Q R S T U V W X Y Z

Trey Anastasio - Mozambique tab

|-----------------5------------------------------------------------------------------5--5----------------|
|----7----5\7-----------5\7/5-----------7---5\7----5\7/5---------------7--7---5\7------------5\7\5-------|
|-------------------------------7----------------------------7--------------------------------------7--7-|
|--------------------------------------------------------------------------------------------------------|
|--------------------------------------------------------------------------------------------------------|
|--------------------------------------------------------------------------------------------------------|
  
  
|--------/7----5-----------------------------------------------------------------------------------------|
|-----------------------------------10-------------------8--------------------10----8-----7\8\7\8\7\8\7--|
|------------------------7---6\7\6----------7---6\7\6---------7---6\7\6----------------------------------|
|--------------------------------------------------------------------------------------------------------|
|--------------------------------------------------------------------------------------------------------|
|--------------------------------------------------------------------------------------------------------|

  
|---------------------------9\10\9------7-----7\9----5---------------------------------------------------|
|-------------------10-----------------------------------------------------------------------------------|
|-----7---6\7\6------------------------------------------------------------------------------------------|
|--------------------------------------------------------------------------------------------------------|
|--------------------------------------------------------------------------------------------------------|
|--------------------------------------------------------------------------------------------------------|



By marcell.......email me at mardcellness@gmail.com if any problems.


www.fuzigish.com
Tap to rate this tab
# A B C D E F G H I J K L M N O P Q R S T U V W X Y Z