Song name
# A B C D E F G H I J K L M N O P Q R S T U V W X Y Z

Trey Anastasio - Alive Again tab

-------------------------------------------------------------------------------
			     Alive Again - Trey Anastasio
-------------------------------------------------------------------------------

Tabbed By : Pauly S

Here's my first impression of this song. It seems to be based
around a simple F voicing and you can definitely jam in a series
of F penatonic styles. Really listen to the song to get an idea
of the beat.
First distorted chord:
E----
B-10-
G-10-
D-10-
A----
E----

Little solo riff heard throughout the whole song:
E----------------------------------------------------------------|
B-16-16-16--15-15-15--13-13--------------------------------------|
G----------------------------17-17-17--15-15--13-13-----13----13-|
D----------------------------------------------------15----15----|
A----------------------------------------------------------------|
E----------------------------------------------------------------|


E-------------------------------------|
B-------^15(16)-13--------------------|
G------------------15-13----13--------|
D15-15-------------------15----15-15--|
A-------------------------------------|
E-------------------------------------|

| /  slide up
| \  slide down
| h  hammer-on
| p  pull-off
| ~  vibrato
| +  harmonic
| x  Mute note
===============================================================================
Tap to rate this tab
 
# A B C D E F G H I J K L M N O P Q R S T U V W X Y Z