Song name
# A B C D E F G H I J K L M N O P Q R S T U V W X Y Z

Trey Parker - America Fuck Yeah tab

This song is sick and these tabs go perfectly with the song

PM... = Wherever you see this, make sure the notes above it (above the periods and PM) are palm muted.

b = When you see this next to a note make sure to bend it.

(Intro)
|---0----2---|
|---1----3---|
|---0----2---|
|---2----0---|
|---3----0---|
|---0--------|
America...America...

(Main Riff)
|------------------------------------------------------------------------|
|------------------------------------------------------------------------|
|---9---9-9-9-9-9-9---7---9---9-9-9-9---7---7-7-7-7-7-7---7---4---12---9-|
|---9---9-9-9-9-9-9---7---9---9-9-9-9---7---7-7-7-7-7-7---7---4---12---9-|x2
|---7---7-7-7-7-7-7---5---7---7-7-7-7---5---5-5-5-5-5-5---5---2---10---7-|
|------------------------------------------------------------------------|
        PM.........           PM.....       PM.........

|--------------------------------------|
|--------------------------------------|
|--------------------------------------|
|---5-5-5-5-5-5-5-5---7-7-7-7-7-7-7-7--| x2
|---5-5-5-5-5-5-5-5---7-7-7-7-7-7-7-7--|
|---3-3-3-3-3-3-3-3---5-5-5-5-5-5-5-5--|
      PM...........     PM...........

(Main Riff)
|------------------------------------------------------------------------|
|------------------------------------------------------------------------|
|---9---9-9-9-9-9-9---7---9---9-9-9-9---7---7-7-7-7-7-7---7---4---12---9-|
|---9---9-9-9-9-9-9---7---9---9-9-9-9---7---7-7-7-7-7-7---7---4---12---9-|x2
|---7---7-7-7-7-7-7---5---7---7-7-7-7---5---5-5-5-5-5-5---5---2---10---7-|
|------------------------------------------------------------------------|
        PM.........           PM.....       PM.........

|--------------------------------------|
|--------------------------------------|
|--------------------------------------|
|---5-5-5-5-5-5-5-5---7-7-7-7-7-7-7-7--| x2
|---5-5-5-5-5-5-5-5---7-7-7-7-7-7-7-7--|
|---3-3-3-3-3-3-3-3---5-5-5-5-5-5-5-5--|
      PM...........     PM...........

(Main Riff)
|------------------------------------------------------------------------|
|------------------------------------------------------------------------|
|---9---9-9-9-9-9-9---7---9---9-9-9-9---7---7-7-7-7-7-7---7---4---12---9-|
|---9---9-9-9-9-9-9---7---9---9-9-9-9---7---7-7-7-7-7-7---7---4---12---9-|x2
|---7---7-7-7-7-7-7---5---7---7-7-7-7---5---5-5-5-5-5-5---5---2---10---7-|
|------------------------------------------------------------------------|
        PM.........           PM.....       PM.........

|--------------------------------------|
|--------------------------------------|
|--------------------------------------|
|---5-5-5-5-5-5-5-5---7-7-7-7-7-7-7-7--| x2
|---5-5-5-5-5-5-5-5---7-7-7-7-7-7-7-7--|
|---3-3-3-3-3-3-3-3---5-5-5-5-5-5-5-5--|
      PM...........     PM...........

|-----------------------------------|
|-----------------------------------|
|---9---9-9-9-9-9-9---7---9---9-9-9-|
|---9---9-9-9-9-9-9---7---9---9-9-9-|
|---7---7-7-7-7-7-7---5---7---7-7-7-|
|-----------------------------------|
           PM............     PM...

Solo thing
|-----------------------------------------------------|
|-----------------------------------------------------|
|-----12-----11-----7--9------------------------------|
|--9------9------9--------9--12--7--5--0--2b----------|
|-----------------------------------------------------|
|-----------------------------------------------------|

Ending
|--------------------------|
|--------------------------|
|99999999999999999---------|
|99999999999999999---------|
|77777777777777777---------|
|--------------------------|
Just do that very rapidly until end.

Once you've done all that, the music kind of stops, then you do the same exact thing 
above, top to bottom) over again...
Tap to rate this tab
 
# A B C D E F G H I J K L M N O P Q R S T U V W X Y Z