Song name
# A B C D E F G H I J K L M N O P Q R S T U V W X Y Z

Trey Parker - Lisa And Gary tab

-------------------------------------------------------------------------------
		Lisa and Gary (Romantic Guitar Clip) - Trey Parker
-------------------------------------------------------------------------------
Tabbed by: Joe
Email: jaknelaps@hotmail.com

Tuning:standard

note: play most of the C#s on the D string (D---11--) very softly

e|---------------------------------8-9---------------------------------------|
B|--------------9-11--11-9-----11------9-------------------------------------|
G|-------8-10--------------------------------11-10-8--6/8--------------------|
D|11---11----11-----11----11-11--11-----11-11--------------------------------|
A|---------------------------------------------------------------------------|
E|---------------------------------------------------------------------------|



| /  slide up
| \  slide down
| h  hammer-on
| p  pull-off
| ~  vibrato
| +  harmonic
| x  Mute note
===============================================================================
Tap to rate this tab
# A B C D E F G H I J K L M N O P Q R S T U V W X Y Z