Song name
# A B C D E F G H I J K L M N O P Q R S T U V W X Y Z

Trey Songz - Cant Help But Wait tab

NUMBER 1;

E|---2---2---2---2---2---0---------------------------------|
B|------0---0-------0-----3---2------2-------2---0------0--|
G|-----2---2-------2---------------------------------------|
D|------------------------------2---4---2---4------0---4---|
A|---------------------------------------------------------|
E|---------------------------------------------------------|

NUMBER 2;

E|-----------0---|
B|---2---3-------|
G|---------------|
D|---------------|
A|---------------|
E|---------------|


After you play number 2, repeat number 1. & This part just repeats throughout the whole song.

& It's easier to pluck. I just learned this by ear & it took me probably 4 hours to get 
perfect.


Hope you like it (=
Tap to rate this tab
 
# A B C D E F G H I J K L M N O P Q R S T U V W X Y Z