Song name
# A B C D E F G H I J K L M N O P Q R S T U V W X Y Z

Trey Songz - Neighbors Know My Name tab

e----------------------|
b---------6p5----------|
g-------5------7---5---|
d----7-----------------|
a--5-------------------|
e----------------------|

e----------3h5p3--------------------------------------|
b-------------------3h5p3--------7----5---------------|
g----------------------------5p3-----------5h7p5------|
d------5----------------------------------------------|
a----7------------------------------------------------|
e--5--------------------------------------------------|
Tap to rate this tab
 
# A B C D E F G H I J K L M N O P Q R S T U V W X Y Z