Song name
# A B C D E F G H I J K L M N O P Q R S T U V W X Y Z

Trey Songz - Cant Help But Wait tab

'Can't Help But Wait' by 'Trey Songz'
I didn't found a full virsion, so i thought: I want to make that
Here it is, goodluck!


   Intro
E |--9-----9-----9------9--7--5--4-----4-----2-----2--4--5--7--|
B |------7-----7-----7---------------2-----2-----2----2--3--5--|
G |----9-----9-----9----9--7--4----4-----4-----4---------------|
D |--0---------------------------------------------------------|
A |------------------------------------------------------------|
E |--------------7---------------2-----------2-----------------|


   Verse
E |--------------5/7----5--------------------------|
B |------7--7----5---7--7--------------------------|
G |------6--6--------5-----------7--7----7/9----7--|
D |----7-----------------------7-7--7----7---9-----|
A |--5------5----------------x---------------------|
E |----------------------5/7--------7--------------|

E |--------------x--------------x--|
B |--------------x--------------x--|
G |------2-2--2--x------1-1--1--x--|
D |------2-2--2--x------2-2--2--x--|
A |----x------x--x----x------x--x--|
E |--2--------2--x--2--------2--x--|


   Bridge
E |--------------x--------------x---------------x-------------x--|
B |--------------x--------------x---------------x-------------x--|
G |------6-6--6--x------4-4--4--x-------6--6--6-x---7--7---9--x--|
D |------6-6--6--x------4-4--4--x-------6--6--6-x---7--7---9--x--|
A |----x------x--x----x------x--x-----x-------x-x---5--5---7--x--|
E |--6--------6--x--4--------4--x--6----------6-x-------------x--|



Something like that...
Tap to rate this tab
# A B C D E F G H I J K L M N O P Q R S T U V W X Y Z