Song name
# A B C D E F G H I J K L M N O P Q R S T U V W X Y Z

Tri Sestry - Kelti tab

Stopa 1
     E  E  E  E  E  E  E  E     E  E  E  E  E  E  E  E   
E||--0-----0-----0-----0-----|--0-----0-----0-----0-----|
B||--1-----1-----1-----1-----|--1-----1-----1-----1-----|
G||--2-----2-----2-----2-----|--2-----2-----2-----2-----|
D||--2-----2-----2-----2-----|--2-----2-----2-----2-----|
A||--0-----0-----0-----0-----|--0-----0-----0-----0-----|
E||--------------------------|--------------------------|


  E  E  E  E  E  E  E  E     E  E  E  E  E  E  E  E    
--0-----0-----0-----0-----|--0-----3-----0-----0-----||
--1-----1-----1-----1-----|--1-----0-----1-----1-----||
--2-----2-----2-----2-----|--0-----0-----2-----2-----||
--2-----2-----2-----2-----|--2-----0-----2-----2-----||
--0-----0-----0-----0-----|--3-----2-----0-----0-----||
--------------------------|--------3-----------------||

Stopa 2
     E.   S  E.   S E.   S Q        E.   S E.   S Q     Q      
E||------------------------------|----------------------------|
B||------------------------------|----------------------------|
G||------------------------------|----------------------------|
D||--7~---9-10~---9-7~---5-------|-------5--------------------|
A||------------------------7~----|--7~-----7~---5-7~----7~----|
E||------------------------------|----------------------------|


  E.   S E.   S E.   S E.   S    E.   S E.   S Q     Q       
------------------------------|----------------------------||
------------------------------|----------------------------||
------------------------------|----------------------------||
-------5-------------5--------|-------5--------------------||
--7~-----7~---5-7~-----7~---5-|--7~-----7~---5-------------||
------------------------------|----------------5~----5~----||
Tap to rate this tab
 
# A B C D E F G H I J K L M N O P Q R S T U V W X Y Z