Song name
# A B C D E F G H I J K L M N O P Q R S T U V W X Y Z

Trial Kennedy - Sun Eyes tab

----------------------------------------------------------
	           Sun Eyes - Trial Kennedy
----------------------------------------------------------
Tabbed by: Kristyn Lee
Email: spot_the_village_loony_836@hotmail.com

Tuning: E A D G B e

Intro
e|---------------------------------------------------|
B|---------------------------------0----------0------|
G|----7---7---7---7---7---7-----6----6----6-----6----|
D|--9---9---9---9---9---9-----7---7-----7---7--------|
A|---------------------------------------------------|
E|---------------------------------------------------|

e|---------------------------------------------------|
B|--------0----------0----------0-----------0--------|
G|----4-----4----4-----4----6-----6-----7-----7------|
D|--5---5------5---5------5---5-------5---5----------|
A|---------------------------------------------------|
E|---------------------------------------------------|

Verse
e|-----------------------------------------------------------|
B|------------------------------------------0---0---0---0----|
G|---7---7---7h9-7-6----6---6---6h7-6------4---4---4---4-----|
D|-9---9---9----------7---7---7-------7---5---5---5---5------|
A|-----------------------------------------------------------|
E|-----------------------------------------------------------|



| /  slide up
| \  slide down
| h  hammer-on
| p  pull-off
| ~  vibrato
| +  harmonic
| x  Mute note
============================================================
Tap to rate this tab
# A B C D E F G H I J K L M N O P Q R S T U V W X Y Z