Guitaretab - guitar tabs
Song name
# A B C D E F G H I J K L M N O P Q R S T U V W X Y Z

Trial Kennedy - Sweet Ally Rose tab

---------------------------------------------------------------
	       Sweet Ally Rose - Trial Kennedy
---------------------------------------------------------------
Tabbed by: Kristyn Lee
Email: spot_the_village_loony_836@hotmail.com

Tuning: E A D G B e

Intro/Verse
e|------00-----00-----00-----55-----00-----00-----00-----00----|
B|------55-----55-----55-----55-----55-----55-----55-----55----|
G|------66-----66-----66-----66-----66-----66-----66-----66----|x3
D|----6-66---6-66---6-66---6-66---6-66---6-66---6-66---6-66----|
A|--4-------4------4------4------------------------------------|
E|------------------------------7------7------7------7---------|

[ Tab from: http://www.guitaretab.com/t/trial-kennedy/176480.html ]
Chorus
e|-----0--0---00----0----------0--0-----0-----00-----0----------|
B|-----0--0---00----0----------0--0-----0-----00-----0----------|
G|--22-2-22-2222-22-2-22-22-2-22-22-222-2-222-22-222-2-222------|
D|--22-2-22-2222-22-2-22-22-2-22-22-222-2-222-22-222-2-222------|
A|--00-0-00-0000-00-0-00-00-0-00-00-xxx-x-xxx-xx-xxx-x-xxx------|
E|----------------------------------222-2-222-22-222-2-222------|

Repeat verse and chorus

Bridge      "everybody's ok..."
e|----------------------------------|
B|----------------------------------|
G|-6666-6666-4444-4444-2222-2222----|x4
D|-6666-6666-4444-4444-2222-2222----|
A|-4444-4444-2222-2222-0000-0000----|
E|----------------------------------|

Then this
e|------------------------------|
B|------------------------------|
G|--22222222--22222222----------|x5
D|--22222222--22222222----------|
A|--00000000--xxxxxxxx----------|
E|------------22222222----------|

electric guitar
e|--5--7--9--11-----------------|
B|---------------10-9-7---------|
G|------------------------------|
D|------------------------------|
A|------------------------------|
E|------------------------------|

That's it pretty much. 


| /  slide up
| \  slide down
| h  hammer-on
| p  pull-off
| ~  vibrato
| +  harmonic
| x  Mute note
=================================================================
Related for Sweet Ally Rose tab
Advertisement will be closed in 10 seconds