Song name
# A B C D E F G H I J K L M N O P Q R S T U V W X Y Z

Trial Kennedy - Sunday Warning tab

---------------------------------------------------------------
              Sunday Warning - Trial Kennedy
---------------------------------------------------------------
Tabbed by: Kristyn Lee
Email: spot_the_village_loony_836@hotmail.com

Tuning: Drop D

Intro/chorus
e|-----------------------------------------------|
B|-----------------------------------------------|
G|--66666666---------------9---9^-----9---9^-----|
D|--66666666-22222222--777-7-7-7--777-7-7-7------|x2
A|--44444444-22222222--777-7-7-7--777-7-7-7------|
D|-----------22222222--777-7-7-7--777-7-7-7------|

verse
e|----(11)---------------------------------------|
B|-----12----------------------------------------|
G|-9-9-----9-------------9-----------------------|x3
D|---------7--7h9p7-6----------------------------|
A|--------------------7--------------------------|
D|-----------------------------------------------|


e|-11--11-11--11-11--11--11-11-----------------12---------|
B|------------------------------14-14-14-14-16----16-14---|
G|--------------------------------------------------------|
D|--------------------------------------------------------|x3
A|--------------------------------------------------------|
D|--------------------------------------------------------|

1:14
e|---------------------------------------|
B|---------------------------------------|
G|--111111111111111111111111/-13\11\99---|
D|--x-x-x-x-x-x-x-x-x-x-x-x---x--x--xx---|
A|--9-9-9-9-9-9-9-9-9-9-9-9-/-11\9-\77---|
D|---------------------------------------|

e|-----------------------------------|
B|-171717--161616--------------------|
G|-x-x-x---x-x-x----161616--181818---|
D|-141414--131313---x-x-x---x-x-x----|
A|------------------141414--161616---|
D|-----------------------------------|

Chorus        "sunday warning..."
e|-----------------------------------------------|
B|-----------------------------------------------|
G|--66666666---------------9---9^-----9---9^-----|
D|--66666666-22222222--777-7-7-7--777-7-7-7------|x2
A|--44444444-22222222--777-7-7-7--777-7-7-7------|
D|-----------22222222--777-7-7-7--777-7-7-7------|

1:36
e|--11-12-11-9~-\4----|
B|--------------------|
G|--------------------|
D|--------------------|
A|--------------------|
D|--------------------|

e|-----------------------------------------------------|
B|-----------------------------------------------------|
G|---99999999--1111111111111111--99999999--8-8-9-6-6---|x2
D|---77777777--9-9-9-9-9-9-9-9---77777777--6-----------|
A|-----------------------------------------------------|
D|-----------------------------------------------------|
     ........  . . . . . . . .   ........  . . . . . 


1:59
e|-11--11-11--11-11--11--11-11-----------------12---------|
B|------------------------------14-14-14-14-16----16-14---|
G|--------------------------------------------------------|
D|--------------------------------------------------------|x2
A|--------------------------------------------------------|
D|--------------------------------------------------------|

then this
e|------------------|
B|---14-16-17-19----|
G|------------------|
D|------------------|
A|------------------|
D|------------------|


Chorus


2:44
e|----------------------------------------------------------|
B|----------------------------------------------------------|
G|-----------66666666-99999999------------------------------|x2
D|--4-6-4-2--66666666-99999999--4-6-4-2--77777777-44444444--|
A|-----------44444444-77777777-----------77777777-44444444--|
D|---------------------------------------77777777-44444444--|


Then play chorus at 3:23 until the song ends


| .  palm mute
| /  slide up
| \  slide down
| h  hammer-on
| p  pull-off
| ~  vibrato
| +  harmonic
| x  Mute note
================================================================
Tap to rate this tab
 
# A B C D E F G H I J K L M N O P Q R S T U V W X Y Z