Guitaretab - guitar tabs
Song name
# A B C D E F G H I J K L M N O P Q R S T U V W X Y Z

Trial Kennedy - Colour Day Tours tab

---------------------------------------------------------------
		 Colour Day Tours - Trial Kennedy
---------------------------------------------------------------
Tabbed by: Kristyn Lee
Email: spot_the_village_loony_836@hotmail.com

Tuning: standard

verse
e|-------------------------------------------|
B|-------------------------------------------|
G|--66666666----------222222222222222/4------|x4
D|--66666666-22222222-222222222222222/4------|
A|--44444444-22222222-000000000000000--------|
E|-----------00000000------------------------|

     "stop by home again..."
e|-------------------------------------------|
B|-------------------------------------------|
G|-------------------------------------------|
D|----6---6---6---6---6---6------------------|
A|--4---4---4---4---4---4--------------------|
E|-------------------------------------------|
[ Tab from: http://www.guitaretab.com/t/trial-kennedy/178901.html ]
pre-chous   "da da da da da da don't go..."
e|-------------------------------------------|
B|--2--2--2----------------------------------|
G|--2--2--2----------------------------------|
D|--2--x--x----------------------------------|
A|-----2--x----------------------------------|
E|--------2----------------------------------|

repeat verse 
repeat pre-chorus

chorus
e|------------------------|
B|------------------------|
G|--99999999-6666-2222----|x4
D|--99999999-6666-2222----|
A|--77777777-4444-0000----|
E|------------------------|

for quiet part at 1:53 you sorta pick the chords
e|-------------------------------------------------|
B|------2---------2---------2--------2-------------|
G|----2---2-----2---2-----2---2----2---2-----------|
D|--2-------2-2-------2----------------------------|
A|----------------------2--------2-----------------|
E|-------------------------------------------------|

then just repeat the chorus again

I know this isn't totally accurate but it's hard to hear the chords.



| /  slide up
| \  slide down
| h  hammer-on
| p  pull-off
| ~  vibrato
| +  harmonic
| x  Mute note
===================================================================
Related for Colour Day Tours tab