Song name
# A B C D E F G H I J K L M N O P Q R S T U V W X Y Z

Trial Kennedy - New Manic Art tab

-------------------------------------------------------------------
	            New Manic Art - Trial Kennedy
-------------------------------------------------------------------
Tabbed by: Kristyn Lee
Email: spot_the_village_loony_836@hotmail.com

Tuning: Standard

Intro
e|------5-6-5---------5-6-5---------8-5-------8-5-----|
B|----6-------6-----6-------6-------------------------|
G|----------------------------------------------------|x2
D|--8------------8-------------0-0------0-0-0---------|
A|----------------------------------------------------|
E|----------------------------------------------------|
verse 
e|----------------------------------------------------|
B|----------------------------------------------------|
G|--------2~--------5~--------7~-------7~-------------|
D|-----3~--------5~--------7~-------7~----------------|
A|--1~--------3~--------5~-------5~-------------------|
E|----------------------------------------------------|
pre-chorus   0:45
e|----------------------------------------------------|
B|----------------------------------------------------|
G|----77\5/77--77\5/77--77\5/77--77\5/77--------------|
D|----77\5/77--77\5/77--77\5/77--77\5/77--------------|
A|----------------------------------------------------|
E|----------------------------------------------------|

chorus      
i think it's just this chord, i could be wrong
e|----------------------------------------------------|
B|----------------------------------------------------|
G|----7-----------------------------------------------|
D|----7-----------------------------------------------|
A|----5-----------------------------------------------|
E|----------------------------------------------------|

"whoooaaaa"
e|----------------------------------------------------|
B|----------------------------------------------------|
G|---3-----5-----7------------------------------------|
D|---3-----5-----7------------------------------------|
A|---1-----3-----5------------------------------------|
E|----------------------------------------------------|




| /  slide up
| \  slide down
| h  hammer-on
| p  pull-off
| ~  vibrato
| +  harmonic
| x  Mute note
=====================================================================
Tap to rate this tab
# A B C D E F G H I J K L M N O P Q R S T U V W X Y Z