Song name
# A B C D E F G H I J K L M N O P Q R S T U V W X Y Z

Trial Kennedy - Mississippi Burn tab

--------------------------------------------------------------------
	          Mississippi Burn - Trial Kennedy
--------------------------------------------------------------------
Tabbed by: Kristyn Lee
Email: spot_the_village_loony_836@hotmail.com

Tuning: Standard

This is pretty much how the whole song goes except a few 
notes are different here and there. 

e|-------2--------------2-----------------------------------|
B|------------0--------------0------------------------------|
G|-----4---4---------4-----4---------4-4-4-----0-0-4-4------|
D|---------------------------------2------------------------|
A|--2-------------0-----------------------------------------|
E|------------------------------0-----------0---------------|

e|-------2--------------2-----------------------------------|
B|------------0--------------0----------------------3-2-----|
G|-----4---4---------4-----4---------4-4-4------4-4---------|
D|---------------------------------2------------------------|
A|--2-------------0-----------------------------------------|
E|------------------------------0------------0--------------|

e|-------2--------------2-----------------------------------|
B|------------0--------------0----------------------3-2-----|
G|-----4---4---------4-----4---------4-4-4------4-4---------|
D|---------------------------------2------------------------|
A|--2-------------0-----------------------------------------|
E|------------------------------0------------0--------------|

e|-------2--------------2-2^--------------------------------|
B|------------0-------------------------------------3-2-----|
G|-----4---4---------4---------------4-4-4------4-4---------|
D|---------------------------------2------------------------|
A|--2-------------0-----------------------------------------|
E|------------------------------0------------0--------------|


| ^  bend note
| /  slide up
| \  slide down
| h  hammer-on
| p  pull-off
| ~  vibrato
| +  harmonic
| x  Mute note
=========================================================================
Tap to rate this tab
 
# A B C D E F G H I J K L M N O P Q R S T U V W X Y Z