Song name
# A B C D E F G H I J K L M N O P Q R S T U V W X Y Z

Trial Kennedy - Hollowood tab

Help us improve GuitareTab! Take a short survey!
Here's an awesome song, from an awesome Melbourne Band named Trial Kennedy.
From their first album New Manic Art.

Any corrections, just tell, and i'll fix.

guitar 1

This is played for most of the verse, as well as the intro. Listen for timing, 
quite easy to pick up.

E:--------------|
B:--------------|
G:9-9-9--9-9-7-7|
D:x-x-x--x-x-x-x|
A:7-7-7--7-7-5-5|
E:--------------|

Guitar 2
Intro bit, listen for timing.

E:-----------------------------------|
B:13--12-12----10h12p10---------10/13|
G:----------------------12-9-12------|
D:-----------------------------------|
A:-----------------------------------|
E:-----------------------------------|

Pre-chorus
*can be power-chord if wished, i just feel this sounds better

E:--------------------------------------------------------|
B:--------------------------------------------------------|
G:--------------------------------------------------------|
D:--------------------------------------------------------|
A:7-7-9-9-10-10-9-9-7-7-9-10---7-7-9-9-10-10-9-9-7-7-14-12|
E:--------------------------------------------------------|

Chorus
*note, last four notes will sometimes go back up to a D chord (x577xx)

E:---------------------------------------------------------------|
B:---------------------------------------------------------------|
G:9-9-9-9-9-9-9-9-7-7-7-7-4-4-4-4-5-5-5-5-5-5-5-5-5-5-5-5-5-5-5-5|
D:9-9-9-9-9-9-9-9-7-7-7-7-4-4-4-4-5-5-5-5-5-5-5-5-5-5-5-5-5-5-5-5|
A:7-7-7-7-7-7-7-7-5-5-5-5-2-2-2-2-3-3-3-3-3-3-3-3-3-3-3-3-3-3-3-3|
E:---------------------------------------------------------------|

Bridge
*tremelo-picked


E:-----------------------|
B:-----------------------|
G:-----11---11-11b-----8b|
D:9-999--999-------9999--|
A:7-777--777-------7777--|
E:-----------------------|

2nd Verse


E:----------------------------------------------|
B:----------------------------------------------|
G:--7-----7-----7--5--4h5p4-4/2--7--5--4h5p4-4/2|  x2
D:----9-----9-----------------------------------|
A:7-----7---------------------------------------|
E:----------------------------------------------|

Pre-chorus (2)

Mainly just the build up of (x799xx) from what i can hear.

Chorus

Solo (3rd verse)
(anyone help for this? i think it's based around the numbers 5,7,9, on the G string)

Then play the verse riff,
then use this for the outro


E:------------------------------------|
B:------------------------------------|
G:------------------------------------|
D:9-9-9-9-9-9-9-9-12-12-12-12-12-12-12|
A:7-7-7-7-7-7-7-7-10-10-10-10-10-10-10|
E:------------------------------------|

Have fun.
Related for Hollowood tab