Song name
# A B C D E F G H I J K L M N O P Q R S T U V W X Y Z

Tribal Ink - To My Face tab

-----------------------------------------------------------------------------
			     Tribal Ink - To My Face
-----------------------------------------------------------------------------
Tabbed by: Gronos
Email: ostn3@rambler.ru

Tuning: Drop D

Legend
/ - slide up

This is my first tab

Intro: Guitar 1 (Clean)
e|--------------------------------------------------------------------------|
B|--15-17-15-13-------------------------------------------------------------|
G|--------------14----------------------------------------------------------|
D|--------------------------------------------------------------------------|
A|--------------------------------------------------------------------------|
D|--------------------------------------------------------------------------|

Verse 1: Guitar 2 (Distorted) 00:39 - 00:44
e|--------------------------------------------------------------------------|
B|--------------------------------------------------------------------------|
G|--------------------------------------------------------------------------|
D|--0-0-0--0-0-0----0-0-0--0-0-0----0-0-0/1---------------------------------|
A|--0-0-0--0-0-0----0-0-0--0-0-0----0-0-0/1---------------------------------|
D|--0-0-0--0-0-0----0-0-0--0-0-0----0-0-0/1---------------------------------|

Chorus: Guitar 1 & Guitar 2 (Distorted)
e|----------------------------------------------------------------------------|
B|----------------------------------------------------------------------------|
G|------------3--------------------------------3------------------------------|
D|--0----3----3----5/7--5/3--1-1-1-1-0----3----3----5/7--5/3--1-1-1-1-0-------|
A|--0----3----1----5/7-5/3--1-1-1-1-0----3----1----5/7--5/3--1-1-1-1-0--------|
D|--0----3---------5/7--5/3--1-1-1-1-0----3---------5/7--5/3--1-1-1-1-0-------|

Verse 2: Guitar 1 (Clean)
e|--16-10-16--16-10-16--16-10-16----16-10-16--16-10-16--16-10-16------------|
B|--------------------------------------------------------------------------|
G|--------------------------------------------------------------------------|
D|--------------------------------------------------------------------------|
A|--------------------------------------------------------------------------|
D|--------------------------------------------------------------------------|

Chorus: Guitar 1 & Guitar 2 (Distorted)
e|----------------------------------------------------------------------------|
B|----------------------------------------------------------------------------|
G|------------3--------------------------------3------------------------------|
D|--0----3----3----5/7--5/3--1-1-1-1-0----3----3----5/7--5/3--1-1-1-1-0-------|
A|--0----3----1----5/7-5/3--1-1-1-1-0----3----1----5/7--5/3--1-1-1-1-0--------|
D|--0----3---------5/7--5/3--1-1-1-1-0----3---------5/7--5/3--1-1-1-1-0-------|

Bridge: Guitar 2 (Distorted)
e|--------------------------------------------------------------------------|
B|--------------------------------------------------------------------------|
G|--------------------------------------------------------------------------|
D|--0-0-0--0-0-0----0-0-0--0-0-0----0-0-0/1---------------------------------|
A|--0-0-0--0-0-0----0-0-0--0-0-0----0-0-0/1---------------------------------|
D|--0-0-0--0-0-0----0-0-0--0-0-0----0-0-0/1---------------------------------|

e|--------------------------------------------------------------------------|
B|--------------------------------------------------------------------------|
G|--------------------------------------------------------------------------|
D|--0-0-0--0-0-0----0-0-0--0-0-0----0-0-0/1---------------------------------|
A|--0-0-0--0-0-0----0-0-0--0-0-0----0-0-0/1---------------------------------|
D|--0-0-0--0-0-0----0-0-0--0-0-0----0-0-0/1---------------------------------|

e|--------------------------------------------------------------------------|
B|--------------------------------------------------------------------------|
G|--------------------------------------------------------------------------|
D|--0-0-0--0-0-0----0-0-0--0-0-0----0-0-0/1---------------------------------|
A|--0-0-0--0-0-0----0-0-0--0-0-0----0-0-0/1---------------------------------|
D|--0-0-0--0-0-0----0-0-0--0-0-0----0-0-0/1---------------------------------|

e|--------------------------------------------------------------------------|
B|--------------------------------------------------------------------------|
G|--------------------------------------------------------------------------|
D|--0-0-0--0-0-0----0-0-0--0-0-0----0-0-0/1---------------------------------|
A|--0-0-0--0-0-0----0-0-0--0-0-0----0-0-0/1---------------------------------|
D|--0-0-0--0-0-0----0-0-0--0-0-0----0-0-0/1---------------------------------|

Guitar 1 (Clean)
e|--------------------------------------------------------------------------|
B|--15-17-15-13-------------------------------------------------------------|
G|--------------14----------------------------------------------------------|
D|--------------------------------------------------------------------------|
A|--------------------------------------------------------------------------|
D|--------------------------------------------------------------------------|

Chorus: Guitar 1 & Guitar 2 (Distorted)
e|----------------------------------------------------------------------------|
B|----------------------------------------------------------------------------|
G|------------3--------------------------------3------------------------------|
D|--0----3----3----5/7--5/3--1-1-1-1-0----3----3----5/7--5/3--1-1-1-1-0-------|
A|--0----3----1----5/7-5/3--1-1-1-1-0----3----1----5/7--5/3--1-1-1-1-0--------|
D|--0----3---------5/7--5/3--1-1-1-1-0----3---------5/7--5/3--1-1-1-1-0-------|

e|----------------------------------------------------------------------------|
B|----------------------------------------------------------------------------|
G|------------3--------------------------------3------------------------------|
D|--0----3----3----5/7--5/3--1-1-1-1-0----3----3----5/7--5/3--1-1-1-1-0-------|
A|--0----3----1----5/7-5/3--1-1-1-1-0----3----1----5/7--5/3--1-1-1-1-0--------|
D|--0----3---------5/7--5/3--1-1-1-1-0----3---------5/7--5/3--1-1-1-1-0-------|

Outro: Guitar 2 (Distorted)
e|--------------------------------------------------------------------------|
B|--------------------------------------------------------------------------|
G|--------------------------------------------------------------------------|
D|--0-0-0--0-0-0----0-0-0--0-0-0--------------------------------------------|
A|--0-0-0--0-0-0----0-0-0--0-0-0--------------------------------------------|
D|--0-0-0--0-0-0----0-0-0--0-0-0--------------------------------------------|
Tap to rate this tab
 
# A B C D E F G H I J K L M N O P Q R S T U V W X Y Z