Song name
# A B C D E F G H I J K L M N O P Q R S T U V W X Y Z

Tribal Seeds - Rider tab

Intro: listen to the song to get the timing down
e--------------------------------------------------------------------|
B--------------------------------------------------------------------|
G----------12-11--14-12--16-14----14-14-14-16-14------12-11h12-------|
D-12h14------------------------------------------14-----------12/14--|    x2
A--------------------------------------------------------------------|
E--------------------------------------------------------------------|


Chords for pretty much the whole song
e-12---12---5---5----------------------------------------------------|
B-12---12---7---7----------------------------------------------------|
G-12---12---7---7----------------------------------------------------|
D--------------------------------------------------------------------|
A--------------------------------------------------------------------|
E--------------------------------------------------------------------|
Tap to rate this tab
# A B C D E F G H I J K L M N O P Q R S T U V W X Y Z