Song name
# A B C D E F G H I J K L M N O P Q R S T U V W X Y Z

Tribal Seeds - Beautiful Mysterious tab

TRIBAL SEEDS
"Beautiful Mysterious"
Standard Tuning

INTRO x2
e|---------------------------3--------------------------|-----------1-------|--1~--3~--|
B|o---------0h1p0-0--------3---3----------------0h1p0-0-|---------1---1----o|--1~--3~--|
G|--------0-------------0---------0---(0h2)---2---------|-------2-------2---|--2~--0~--|
D|------2-----------------------------------2-----------|----(3)------------|--3~--0~--|
A|o--/3-------------3-------------------0---------------|-0----------------o|--3~--2~--|
E|--------------------3---------------------------------|---1---------------|--1~--3~--|

VERSE x6  
e|--x--x----3--3----x--x----1--1--|
B|--1--1----3--3----1--1----1--1--|
G|--0--0----x--x----2--2----2--2--|
D|--2--2----x--x----2--2----3--3--|
A|--3--3----2--2----0--0----3--3--|
E|--x--x----3--3----x--x----1--1--|

CHORUS x4
e|------------------|
B|--------8--8h10~--|
G|--7h9~------------|
D|------------------|
A|------------------|
E|------------------|

VERSE x6
CHORUS x4

GUITAR SOLO
e|---------------------------------------------------------------|
B|---------------------------------------------------------------|
G|--4h5~--/9-9h10p9\7~--/10--10-9\7--7--5--5--4------4-5-7-4-5~--|
D|------------------------------------------------5--------------|
A|---------------------------------------------------------------|
E|---------------------------------------------------------------|
 |                                                               |
e|---------------------------------------------------------------|
B|--8h10--10--8\6--5-6-8---5-6-8-5-6-8-5-6-8-5-6--5h6p5----------|
G|-------------------------------------------------------7--\5~--|
D|---------------------------------------------------------------|
A|---------------------------------------------------------------|
E|---------------------------------------------------------------|

CHORUS x4
OUTRO/VERSE (fade out)


*LYRICS*

Mysteriously, beautifully
Saw you and your friends standing across from me
Capture of your glimpse, actions nervously
Blessings bloom all around you, hear I sing
Your humble beauty and your feminine drive I man crazy
Even when I see you from afar, still look pretty
This is the natural attraction from a male to a darling
Not of root from the birds and the bees, but from Adam and Eve

Ms. Beautiful Mysterious
Causing I and I to go delirious
Unknown beautiful mysterious
Look at I and I manners, see how them suffer
Ms. Beautiful Mysterious
Causing I and I to go delirious
Unknown beautiful mysterious
check out I manners, see how them suffer

Burn lust-looking, Never gonna see you as a tool
Treat you with respect, I am not a fool
Everyday, go home forgetting your look
Next day glance upon your face dejavu 
This is not a joke, what I'm telling you is true
Yet I'm not in love, I don't care who
Still your body slender, body so fair
Love how the sunshine reflect off your hair
If there is any answer, please tell me where
To my question, never yet shared
Try to keep my strength, but you are my weakness
Yet when I pass upon and by you, I put up no interest
you are my weakness

Ms. Beautiful Mysterious
Causing I and I to go delirious
Unknown beautiful mysterious
Look at I and I manners, see how them suffer
Ms. Beautiful Mysterious
Causing I and I to go delirious
Unknown beautiful mysterious
check out I manners, see how them suffer


R=]
Tap to rate this tab
# A B C D E F G H I J K L M N O P Q R S T U V W X Y Z