Song name
# A B C D E F G H I J K L M N O P Q R S T U V W X Y Z

Tribal Seeds - Lost Paradise tab

Lost Paradise
Tribal Seeds
Tribal Seeds

Chords
  A major   D Major  F# Major  E Major
E|----5--------10-------9--------7-------------------------------------|
B|----5--------10-------10-------9-------------------------------------|
G|----6--------11-------11-------9-------------------------------------|
D|----7--------12-------11-------9-------------------------------------|
A|----7--------12-------9--------7-------------------------------------|
E|----5--------12------------------------------------------------------|

Little Solo at :44                                                                    X2
E|---7-h-9-9-----9-7-------------------------------------------|
B|-7-----------7-----10-9-s-7-7-7-7-s-9-9----------------------|
G|-------------------------------------------------------------|
D|-------------------------------------------------------------|
A|-------------------------------------------------------------|
E|-------------------------------------------------------------|

From 1:16 till 1:27 the guitar does this
    E A
E|--7-5~------------------------------------------|
B|--9-5~------------------------------------------|
G|--9-6~------------------------------------------|
D|--9-7~------------------------------------------|
A|--7-7~------------------------------------------|
E|----5~------------------------------------------|

Then from 1:27 till 1:54 the guitar does this                                          X5
E|-5----5----5------5----5---------5----5----5-------7---7-----|
B|--5----5-----5------5----5---------5----5----5------9---9----|
G|---7----7-----7------7-----7---------7---7----7------9---9---|
D|-------------------------------------------------------------|
A|-------------------------------------------------------------|
E|-------------------------------------------------------------|
Tap to rate this tab
 
# A B C D E F G H I J K L M N O P Q R S T U V W X Y Z