Song name
# A B C D E F G H I J K L M N O P Q R S T U V W X Y Z

Tribal Seeds - Youth Rebellion tab

Youth Rebellion
Tribal Seeds
Tribal Seeds

Chords
  G# Minor   F# Major
E|----4--------2------------------------------------------------------|
B|----4--------2------------------------------------------------------|
G|----4--------3------------------------------------------------------|
D|----5--------4------------------------------------------------------|
A|----5--------4------------------------------------------------------|
E|----4--------2------------------------------------------------------|

Solo at 3:06
E|-------------------9-------11-11-11---------------------------------------|
B|-9---12-12-12-9-12---12-------------14-12h14p12------12s14-12-------------|
G|------------------------------------------------13------------13-11-13----|
D|--------------------------------------------------------------------------|
A|--------------------------------------------------------------------------|
E|--------------------------------------------------------------------------|

E|---------------------------------------------------------------------------|
B|-12s14-12------------------------------------------------------------------|
G|----------13-11-13--11-------13-11------13-11------13-11-----13-11---------|
D|------------------------13--------13-11-------13-11-----13-11-----13-11----|
A|---------------------------------------------------------------------------|
E|---------------------------------------------------------------------------|
                      Tremelo pick
E|-------------------------14-16--------------------------------------|
B|----12--12--12--12----16--------------------------------------------|
G|-13---13--13--13----------------------------------------------------|
D|--------------------------------------------------------------------|
A|--------------------------------------------------------------------|
E|--------------------------------------------------------------------|
Tap to rate this tab
 
# A B C D E F G H I J K L M N O P Q R S T U V W X Y Z