Song name
# A B C D E F G H I J K L M N O P Q R S T U V W X Y Z

Tribal Seeds - Creator tab

Creator
Tribal Seeds
Tribal Seeds

Intro/Outro
E|-------------------------------------------------------|
B|-------------------------------------------------------|
G|-6-6----6-8-9-9----------------------------------------|
D|------6---------9-9-6-6-6------------------------------|
A|-------------------------------------------------------|
E|-------------------------------------------------------|

Chords
  C# Minor   C# Minor   E Major   B Major
E|----4---------4---------7---------2--------------------------|
B|----5---------5---------9---------4--------------------------|
G|----6---------6---------9---------4--------------------------|
D|----6---------6---------9---------4--------------------------|
A|----4---------4---------7---------2--------------------------|
E|-------------------------------------------------------------|
Tap to rate this tab
 
# A B C D E F G H I J K L M N O P Q R S T U V W X Y Z