Song name
# A B C D E F G H I J K L M N O P Q R S T U V W X Y Z

Tribal Seeds - Lifes Not Fair tab

Life's Not Fair
Tribal Seeds feat Chaza're

Intro/Outro (Tremelo picked)
E|---------------------------------|
B|-s10--8-10--8-----8--------------|
G|--------------10----7------------|
D|---------------------------------|
A|---------------------------------|
E|---------------------------------|

Chords
  D Minor   C Major
E|---5-------3-----------------------|
B|---6-------5-----------------------|
G|---7-------5-----------------------|
D|---7-------5-----------------------|
A|---5-------3-----------------------|
E|-----------------------------------|
Tap to rate this tab
 
# A B C D E F G H I J K L M N O P Q R S T U V W X Y Z