Song name
# A B C D E F G H I J K L M N O P Q R S T U V W X Y Z

Tribal Seeds - Love Psalm tab

Love Psalm
Tribal Seeds
The Harvest

Horn Intro
E|-5---5---9---7---5---4----5---5---9---7----5---5---9---7---5---4----5---5---9--7--7--9--------|
B|-7---7---10--9---7---5----7---7---10--9----7---7---10--9---7---5----7---7---10-9--9--10-------|
G|-7---7---11--9---7---6----7---7---11--9----7---7---11--9---7---6----7---7---11-9--9--11-------|
D|----------------------------------------------------------------------------------------------|
A|----------------------------------------------------------------------------------------------|
E|----------------------------------------------------------------------------------------------|

Chords
   F# Minor   E Major
E|---9--------7------------------------------------------|
B|---10-------9------------------------------------------|
G|---11-------9------------------------------------------|
D|---11-------9------------------------------------------|
A|---9--------7------------------------------------------|
E|-------------------------------------------------------|


Tap to rate this tab
 
# A B C D E F G H I J K L M N O P Q R S T U V W X Y Z