Song name
# A B C D E F G H I J K L M N O P Q R S T U V W X Y Z

Tribal Seeds - Dawn Of Time tab

TRIBAL SEEDS - DAWN OF TIME 

Guitar solo at 2:52

h=hammer on
p=pull off

e 15---|----17|15---1412---|------------|------------|
B -----|------|----------13|12--------13|12----------|
G -----|------|------------|----1412----|----1412----|
D -----|------|------------|------------|------------|
A -----|------|------------|------------|------------|
E -----|------|------------|------------|------------|

e-------------------------------|
B-------121212-13-12-12h13p12---|
G-----------------------------14|
D-------------------------------|
A-------------------------------|
E-------------------------------|

e ------------|------12-12-------|--------------------|------------12------|
B ---12-12-15-|12-15-------15-13-|15-12---121212-12-12|---------15----12---|
G ------------|------------------|--------------------|-14-14-14-----------|
D ------------|------------------|--------------------|--------------------|
A ------------|------------------|--------------------|--------------------|
E ------------|------------------|--------------------|--------------------|

e ------------|------12-12-------|--------151515-15-15|-14-14---14--17--15-|
B ---12-12-15-|12-15-------15-13-|15-12---------------|-------15-----------|
G ------------|------------------|--------------------|--------------------|
D ------------|------------------|--------------------|--------------------|
A ------------|------------------|--------------------|--------------------|
E ------------|------------------|--------------------|--------------------|
Tap to rate this tab
 
# A B C D E F G H I J K L M N O P Q R S T U V W X Y Z