Song name
# A B C D E F G H I J K L M N O P Q R S T U V W X Y Z

Tribal Seeds - Did Wrong tab

Did Wrong
Tribal Seeds



Intro
|---------------------------------------------------------------------|
|---------------------------------------------------------------------|
|---------------------------------------------------------------------|
|----3-3-3-3-2------------2--3------3-3-3-3-2-------------------------|
|--3-----------5-----3-5----------3-----------5------1-1-1-1-3-3-3----|
|------------------------------------------------------------------1--|

Chours
|--8----8-8-------------------10-8----8----|
|----10----10----8---8-8-----------10--10--|
|------------------10----10----------------|
|------------------------------------------|
|------------------------------------------|
|------------------------------------------|

Post Chorus
|--17--17-15-15-13---12--12-13--13-12--10--10-12--12-12-13--13-13-13--|
|---------------------------------------------------------------------|
|---------------------------------------------------------------------|
|---------------------------------------------------------------------|
|---------------------------------------------------------------------|
|---------------------------------------------------------------------|

Right before second verse
|---------------------------------|
|----------------9----9--11-11b---|
|--8h10p8----8h10--10-------10b---|
|---------------------------------|
|---------------------------------|
|---------------------------------|


Many measures of this is  played near the end
|---5-8-5--5-8-5---5-8-5--5-8-5---|
|--6------6------6-------6--------|
|---------------------------------|
|---------------------------------|
|---------------------------------|
|---------------------------------|

Guitar for last Chorus
|------------------------------|
|--10--11--10--10--10-----10---|
|------------------------------|
|------------------------------|
|------------------------------|
|------------------------------|

Threw this together quickly, still a work in progress. Let me know if you can help me 
add anything.
Tap to rate this tab
# A B C D E F G H I J K L M N O P Q R S T U V W X Y Z