Song name
# A B C D E F G H I J K L M N O P Q R S T U V W X Y Z

Tribes - When My Day Comes chords

Highlighted       Show chord diagrams
-------------------------------------------------------------------------------
			     When My Day Comes - Tribes
-------------------------------------------------------------------------------
Tabbed by: daf

Chords used:

   Db    Ab    Bbm   F#

e|-4-----4-----1-----2----------------------------------------------------------------|
B|-6-----4-----2-----2----------------------------------------------------------------|
G|-6-----5-----3-----3----------------------------------------------------------------|
D|-6-----6-----3-----4----------------------------------------------------------------|
A|-4-----6-----1-----4----------------------------------------------------------------|
E|-4-----4-----1-----2----------------------------------------------------------------|


Intro riff: just keep bending the G-string and picking, till the little lick at the end.

e|---------------------------------------------------------------------------|
B|--9-------------9----------------------------------------------------------|
G|--11b-------------11-10--------10------------------------------------------|
D|------------------------11---11--11----------------------------------------|
A|---------------------------------------------------------------------------|
E|---------------------------------------------------------------------------|


Accompanying chords for intro: Db  Ab  Db  F# (x2)


Verse 1:

Db                Ab
I used to wake up every night,

Bbm            F#
bad dreams and my chest tight,

Db                           Ab
you tell your friends on the telephone,

Bbm                F#
it's not them that make you feel alone,


Bridge:


Db               Ab
and nothing ever stays the same,

Bbm                       F#
why should we worry 'bout acting our age?

Db                 Ab
I wanna live under my rules,

Bbm                    F#
do what I want and not answer to you.


Chorus:

Db            Ab           F#
Oh no I wanna kill but I'm young,

        Db                          Ab         F#
we were born the same day just been out having fun,

       Bbm                   F#    Ab
Now it don't mean a thing to me or no-one,

       Db                Ab     F#
I will live my life when my day comes.


Intro riff x 1


Verse 2:

Db                     Ab
You sat me down on the kitchen floor,

Bbm          F#
so drunk you wrote on the wall,

Db                          Ab
you took your dress off and looked at me,

Bbm                 F#
you can't love what you can't see.


(lead guitar enters here with repeated picking of 11th fret on G string / C# note)


Bridge:

Db               Ab
and nothing ever stays the same,

Bbm                       F#
why should we worry 'bout acting our age?

Db                  Ab
I'll never tell you what to do,

Bbm                     F#
it's just bad luck baby following you.


Chorus:

Db            Ab           F#
Oh no I wanna kill but I'm young,

        Db                          Ab         F#
we were born the same day just been out having fun,

       Bbm                   F#    Ab
Now it don't mean a thing to me or no-one,

       Db                Ab     F#
I will live my life when my day comes.


Middle 8:

Db                Bbm        Ab             F#
Ohhhh, you know I just won't leave you like this,

           Bbm        Ab             Db
you know I just can't leave you like this.

           Bbm        Ab             F#
You know I just won't leave you like this,

           Bbm        Ab 
you know I just can't leave ya.


Solo:

e|---------------------------------------------------------------------------|
B|--4-4----4-4-6-4----4-4---7-6-4--------------------------------------------|
G|-6---6--6-------6--6---6-------6-----x2------------------------------------|
D|---------------------------------------------------------------------------|
A|---------------------------------------------------------------------------|
E|---------------------------------------------------------------------------|


Chorus x 2


Finish on Db.


and I'm not 100% about the lyrics, I guessed them myself, so apologies if they're incorrect!
especially the first line of the chorus, I'm not sure if it's 'kill', 'cure' or 'kid'...

Thanks anyway, enjoy!
Tap to rate this tab
 
# A B C D E F G H I J K L M N O P Q R S T U V W X Y Z