Song name
# A B C D E F G H I J K L M N O P Q R S T U V W X Y Z

Trick Daddy - Sugar tab

[Sugar (Gimme Some) by Trick Daddy feat. Ludacris]

-------------------------------------------------------------------------------
(Notes: There are only two chords in the entire song, they are Am and E, in standard 
Under the tab row, you will see the two chords laid out.

Each measure has 8 beats, 12341234.

The [INTRO] tab has three parts labeled (pt.1), (pt.2), and (pt.3). You play all parts once.

The [CHORUS] tab is [INTRO]'s (pt.3); play 2 times immediately after [INTRO]; anywhere 
in the song, play 4 times. Keep in mind that (pt.3) is TWO measures long.

The [VERSE] tab is [INTRO]'s (pt.1) twice; play this duo 4 times.

The [BREAK] tab has three parts labeled (pt.4), (pt.5) and (pt.6). This is the part in 
song when the lyrics stop and the woman's vocals come in; play (pt.4) and (pt.5) once 
the woman's vocals; play (pt.4) and (pt.6) once after the woman's vocals.

The [OUTRO] tab consists of the "A" and "D" strings of the Am chord and for the 
sake, it will be labeled (pt.7).

Here is the song broken down into a simple outline, with the [tabs] on the left and the 
(pt.) on the right:
    [INTRO] : 1 2 3
   [CHORUS] : 3 3
    [VERSE] : 1 1 1 1 1 1 1 1
   [CHORUS] : 3 3 3 3
    [VERSE] : 1 1 1 1 1 1 1 1
   [CHORUS] : 3 3 3 3
    [BREAK] : 4 5 4 6
    [VERSE] : 1 1 1 1 1 1 1 1
   [CHORUS] : 3 3 3 3
    [OUTRO] : 7

The tabs for this song that I've put together may be very difficult for most of you to 
because it looks cluttered and dense, but I assure you it is very easy to play once 
broken down the tab into parts. It does not take long to learn this song. So enjoy 
and give me feedback.)
-------------------------------------------------------------------------------


[INTRO]
    (pt.1)                           (pt.2)
   1   2   3   4   1   2   3   4     1   2   3   4   1   2   3   4
e|---------------------------------|---------------------------------|
B|-------1---1---0-------0---------|-------1---1---0-----------------|
G|-------2---2---0-------1---1---0-|-------2---2---0-----------1---0-|
D|-2-----2---2-----------2---2---0-|-2-----2---2---------------2---0-|
A|-0---------------2---------2-----|-0---------------2---------2-----|
E|-----------------0---------------|-x---------------0---------------| x1
  [_____Am______] [______E______]   [_____Am______] [______E______]
    (pt.3)
   1   2   3   4   1   2   3   4     1   2   3   4   1   2   3   4
e|-------0-------------------------|-------0-------------------------|
B|---------1-----0-----------------|---------1-----0-----------------|
G|-----------2---0-----------1---0-|-----------2---0-----------1---0-|
D|-2-------------------------2---0-|-2-------------------------2---0-|
A|-0---------------2---------2-----|-0---------------2---------2-----|
E|-x---------------0---------------|-x---------------0---------------| x1
  [_____Am______] [______E______]   [_____Am______] [______E______]

[CHORUS]
    (pt.3)
   1   2   3   4   1   2   3   4     1   2   3   4   1   2   3   4
e|-------0-------------------------|-------0-------------------------|
B|---------1-----0-----------------|---------1-----0-----------------|
G|-----------2---0-----------1---0-|-----------2---0-----------1---0-|
D|-2-------------------------2---0-|-2-------------------------2---0-|
A|-0---------------2---------2-----|-0---------------2---------2-----|
E|-x---------------0---------------|-x---------------0---------------| x2/x4
  [_____Am______] [______E______]   [_____Am______] [______E______]

[VERSE]
    (pt.1)                         + (pt.1)
   1   2   3   4   1   2   3   4     1   2   3   4   1   2   3   4
e|---------------------------------|---------------------------------|
B|-------1---1---0-------0---------|-------1---1---0-------0---------|
G|-------2---2---0-------1---1---0-|-------2---2---0-------1---1---0-|
D|-2-----2---2-----------2---2---0-|-2-----2---2-----------2---2---0-|
A|-0---------------2---------2-----|-0---------------2---------2-----|
E|-----------------0---------------|-x---------------0---------------| x4
  [_____Am______] [______E______]   [_____Am______] [______E______]

[BREAK]
    (pt.4)                            (pt.5)
   1   2   3   4   1   2   3   4     1   2   3   4   1   2   3   4
e|-------0---------------0---------|-----0-0-------------------------|
B|---1---1---1---0---0---0---0-----|---------1-----0-----------0-----|
G|-----------2---0-----------1---0-|-----------2---0-----------1---0-|
D|-2-------------------------2---0-|-2-------------------------2---0-|
A|-0---0---0---0---2---------------|-0---0---0---0---2---------------|
E|-x---------------0---0---0---0---|-x---------------0---0---0---0---| x1
  [_____Am______] [______E______]   [_____Am______] [______E______]
    (pt.4)                            (pt. 6)
   1   2   3   4   1   2   3   4     1   2   3   4   1   2   3   4
e|-------0---------------0---------|-------0-------------------------|
B|---1---1---1---0---0---0---0-----|---1---1---1---0---0---0---------|
G|-----------2---0-----------1---0-|-----------2---0-----------------|
D|-2-------------------------2---0-|-2-------------------------------|
A|-0---0---0---0---2---------------|-0---0---0---0---2---------------|
E|-x---------------0---0---0---0---|-x---------------0---------------| x1
  [_____Am______] [______E______]   [_____Am______] [______E______]

[OUTRO]
    (pt.7)
   1   2   3   4
e|---------------|
B|---------------|
G|---------------|
D|-2-------------|
A|-0-------------|
E|---------------|
  [_____Am______]
Tap to rate this tab
 
# A B C D E F G H I J K L M N O P Q R S T U V W X Y Z